Song name
# A B C D E F G H I J K L M N O P Q R S T U V W X Y Z

Lewis Gary - Green Grass tab

----------------------------------------------------------------------------
GREEN GRASS-Cibelle
---------------------------------------------------------------------------
Many thanks to electrogirl for the chords!!!!! :)
------------------------------------------------------------------------


remember when you loved me.

Tuning: Standard

intro

e|-------------11-13-11-15-16-15-16-----------16--|
B|------------8-------------------------13-16-----|
G|----------8------------------------13-----------|
D|--------10--------------------------------------|
A|------10----------------------------------------|
E|--8---------------------------------------------|

e|-13--13------------------------------|
B|---13--------------------------------|
G|-------16b--13-12--------------------|
D|-------------------15--13-12--12-----|
A|---------------------------------15--|
E|-------------------------------------|

e|------------------------------16---|
B|-------13--------------------------|
G|-----12------------------13--------|
D|---13---------------12-15----------|
A|-15--------15-14--14---------------|
E|-----------------------------------|


............................ Then play the part in between the * 3X
............................ (for verses 1,2,3)

{ ---- first time only -----------------------------------------| } Cm Fm
e|-3-3---3-3---3-3---3-3-*--3--3-----3--3----8--8-----8--8------|
B|-4-4---4-4---4-4---4-4-*--4--4-----4--4----9--9-----9--9------|
G|-5-5---5-5---5-5---5-5-*--5--5-----5--5---10-10----10-10------|
D|-5-5-5-5-5---5-5-5-5-5-*--5--5--5--5--5---10-10-10-10-10------|
A|-3-3-3-3-3---3-3-3-3-3-*--3--3--3--3--3----8--8--8--8--8------|
E|------------------------*-------------------------------------|

   G           Cm          Ab          G           G           Cm
e|-3-3---3-3---3-3---3-3---4-4---4-4---3-3---3-3---3-3---3-3---3-3---3-3--*
B|-3-3---3-3---4-4---4-4---4-4---4-4---3-3---3-3---3-3---3-3---4-4---4-4--*
G|-4-4---4-4---5-5---5-5---5-5---5-5---4-4---4-4---4-4---4-4---5-5---5-5--*
D|-5-5---5-5---5-5-5-5-5---6-6---6-6---5-5---5-5---5-5---5-5---5-5-5-5-5--*
A|-5-5-5-5-5---3-3-3-3-3---6-6-6-6-6---5-5-5-5-5---5-5-5-5-5---3-3-3-3-3--*
E|-3-3-3-3-3---------------4-4-4-4-4---3-3-3-3-3---3-3-3-3-3--------------*

Then play this 1X (for verse 4, it just has a different beginning)
   Bb                      Eb
e|-6-6---6-6---6-6---6-6---6-6---6-6---6-6---6-6---|
B|-6-6---6-6---6-6---6-6---8-8---8-8---8-8---8-8---|
G|-7-7---7-7---7-7---7-7---8-8---8-8---8-8---8-8---|
D|-8-8---8-8---8-8---8-8---8-8-8-8-8---8-8-8-8-8---|
A|-8-8-8-8-8---8-8-8-8-8---6-6-6-6-6---6-6-6-6-6---|
E|-6-6-6-6-6---6-6-6-6-6---------------------------|

   Ab          G           G           Cm
e|-4-4---4-4---3-3---3-3---3-3---3-3---3-3---3-3--|
B|-4-4---4-4---3-3---3-3---3-3---3-3---4-4---4-4--|
G|-5-5---5-5---4-4---4-4---4-4---4-4---5-5---5-5--|
D|-6-6---6-6---5-5---5-5---5-5---5-5---5-5-5-5-5--|
A|-6-6-6-6-6---5-5-5-5-5---5-5-5-5-5---3-3-3-3-3--|
E|-4-4-4-4-4---3-3-3-3-3---3-3-3-3-3--------------|


Then play this 1X (for the bridge)
    G                Fm
e|--3--3-----3--3----8--8-----8--8----|
B|--3--3-----3--3----9--9-----9--9----|
G|--4--4-----4--4---10-10----10-10----|
D|--5--5--5--5--5---10-10-10-10-10----|
A|--5--5--5--5--5----8--8--8--8--8----|
E|--3--3--3--3--3---------------------|

   Bb          Cm          Ab          G
e|-6-6---6-6---3-3---3-3---4-4---4-4---3-3---3-3---|
B|-6-6---6-6---4-4---4-4---4-4---4-4---3-3---3-3---|
G|-7-7---7-7---5-5---5-5---5-5---5-5---4-4---4-4---|
D|-8-8---8-8---5-5-5-5-5---6-6---6-6---5-5---5-5---|
A|-8-8-8-8-8---3-3-3-3-3---6-6-6-6-6---5-5-5-5-5---|
E|-6-6-6-6-6---------------4-4-4-4-4---3-3-3-3-3---|

    Fm                Cm
e|--8--8-----8--8----3--3-----3--3---|
B|--9--9-----9--9----4--4-----4--4---|
G|-10-10----10-10----5--5-----5--5---|
D|-10-10-10-10-10----5--5--5--5--5---|
A|--8--8--8--8--8----3--3--3--3--3---|
E|-----------------------------------|

Then play this 3X (for verse 5, glokenspiel interlude, verse 6)
    Cm               Fm
e|--3--3-----3--3----8--8-----8--8----|
B|--4--4-----4--4----9--9-----9--9----|
G|--5--5-----5--5---10-10----10-10----|
D|--5--5--5--5--5---10-10-10-10-10----|
A|--3--3--3--3--3----8--8--8--8--8----|
E|------------------------------------|

   G           Cm          Ab          G           G           Cm
e|-3-3---3-3---3-3---3-3---4-4---4-4---3-3---3-3---3-3---3-3---3-3---3-3--|
B|-3-3---3-3---4-4---4-4---4-4---4-4---3-3---3-3---3-3---3-3---4-4---4-4--|
G|-4-4---4-4---5-5---5-5---5-5---5-5---4-4---4-4---4-4---4-4---5-5---5-5--|
D|-5-5---5-5---5-5-5-5-5---6-6---6-6---5-5---5-5---5-5---5-5---5-5-5-5-5--|
A|-5-5-5-5-5---3-3-3-3-3---6-6-6-6-6---5-5-5-5-5---5-5-5-5-5---3-3-3-3-3--|
E|-3-3-3-3-3---------------4-4-4-4-4---3-3-3-3-3---3-3-3-3-3--------------|

Outro
(this isn't exact, just kinda play around here)

e|------------------------------------------------------------------|
B|------------------------------------------------------------------|
G|------------------------------------------------------------------|
D|--15-13-12------15-13-12--------12-13-15-13-15----12-13-15-15-----|
A|------------15------------15--14-----------------14---------------|
E|------------------------------------------------------------------|

e|--------------------------------------------------------------------|
B|--------------------------------------------------------------------|
G|-------------------------------------------------12---13---12---13--|
D|-15---12-15-13------13--12------------12-15--12---15---12---15------|
A|----14---------11-14--------15-14---14------------------------------|
E|-----------------------------------16-------------------------------|

e|------------------------|
B|------------------------|
G|------------------------|
D|--12--12----------------|
A|----------15~~~~~~~~~~~~|
E|------------------------|
Tap to rate this tab
 
# A B C D E F G H I J K L M N O P Q R S T U V W X Y Z