Song name
# A B C D E F G H I J K L M N O P Q R S T U V W X Y Z

Lewis Watson - What About Today tab

-------------------------------------------------------------------------------
                             What About Today?  Lewis Watson
-------------------------------------------------------------------------------
Tabbed by: Jordan Madani
E-mail: jordanmadani@yahoo.co.uk

My Facebook Page: www.facebook.com/jordan.madani.music
My YouTube Channel: www.youtube.com/user/JordanMadani

This is my first ever tab, so if it sounds crap then I do apologise. If you have any
corrections please let me know!
You'll probably be best listening to the song to work out the rhythm, or watching how
Lewis plays it in any of his live videos such as this one: 
http://www.youtube.com/watch?v=iKXkaTZRwvs&feature=related

Tuning: Standard (EADGBe)
CAPO 1

Intro/Verses

e|-------------------------------------------------------------------------------|
B|-------------------------------------------------------------------------------|
G|----------------------------------------------0h2-0----------------------------|
D|----9--9---9--9/7--7---7--7-7---2-2-2-0h2p0-2-------0h2-0h2-2--0h2p0-2/4-------|
A|----7--7---7--7/5--5p0-0--5-5---3-3-3-3-----3-------3---3---3--3-----3/5-------|
E|--0------0----------------5-5-0-3-3-3-3-----3-------3---3---3--3-----3/5-------|

Chorus


    Am7       Em         B7    C/G

e|--0---0-----0-----0----0-----0-0-----0-------0---0---0--------0/0-------------------|
B|--0h1-1-----0-----0----0-----0-0-----0-------0---0---0--------0/0-------------------|
G|--0---0-----0-----0----2-----0-0-----0-0h2-0-0---0---0--------0/0-------------------|
D|--2---2-----2-----2----1-----2-0h2p0-2-------0h2-0h2-2--0h2p0-2/4-------------------|
A|--0---0-----0h2p0-2----2-----3-3-----3-------3---3---3--3-----3/5-------------------|
E|--x---x-----0-----0----x-----3-3-----3-------3---3---3--3-----3/5-------------------|
Tap to rate this tab
# A B C D E F G H I J K L M N O P Q R S T U V W X Y Z