Song name
# A B C D E F G H I J K L M N O P Q R S T U V W X Y Z

Lewis Watson - What About Today tab

-------------------------------------------------------------------------------
                             What About Today? - Lewis Watson
-------------------------------------------------------------------------------
Tabbed by: Jacob Colgan
E-mail: J.colgan@musician.org

Tuning:EADGBe
Capo: 1st

If you know the song then you should know the strumming pattern
Verse Riff:

e|-0-0----------------------------------------------------------------------|
B|-0-0----------------------------------------------------------------------|
G|-0-0----------0-----2p0-0---0/0-------------------------------------------|
D|-9-7-7-2-0h2--0h2p0-----0h2-2/4-------------------------------------------|
A|-7-5-5-3-3----3-----3---3---3/5-------------------------------------------|
E|-0-0-5--------------------------------------------------------------------|

Chorus:
   Am   em  c
e|-0----0---0---------------------------------------------------------------|
B|-0h1--0---0---------------------------------------------------------------|
G|-2----0---2-----0-----2p0-0---0/0-----------------------------------------|
D|-2----2---0-0h2-0h2p0-----0h2-2/4-----------------------------------------|
A|-0----0h2-2-3---3-----3---3---3/5-----------------------------------------|
E|------0---0---------------------------------------------------------------|
No one else had tabbed is so here it is,t hat should be all of it if i've missed anything out
 just drop me an email

************************************
Tap to rate this tab
# A B C D E F G H I J K L M N O P Q R S T U V W X Y Z