Song name
# A B C D E F G H I J K L M N O P Q R S T U V W X Y Z

Lewis Watson - Into The Wild tab

-------------------------------------------------------------------------------
                             Into The Wild - Lewis Watson
-------------------------------------------------------------------------------
Tabbed by: Neil Wicker
E-mail: wicker101@hotmail.co.uk

Tuning: Standard

This is tabbed from the audio of the music video. No capo

Intro 

e|---------------------------------|
B|---------------------------------|
G|----2---2---2---2---2---2---2----|
D|--0---0---4---2---0---0-------0--|  x2
A|--------------------------4------|
E|---------------------------------|

verse:
  D
e|---------------------------------|
B|---------------------------------|
G|----2---2---2---2---2---2---2----|
D|--0---0---4---2---0---0-------0--|  x3
A|--------------------------4------|
E|---------------------------------|

   Bm
e|---------------------------------|
B|---------------------------------|
G|----4---4---4---4---4---4---4----|
D|------4---4---4-------4---4---4--|
A|--2---------------2--------------|
E|---------------------------------|

   A
e|---------------------------------|
B|---------------------------------|
G|----2---2---2---2---2---2---2----|
D|------2---2---2-------2---2---2--|
A|--0---------------0--------------|
E|---------------------------------|

D
take my hand and let go,
D
I just want you to know,
D                        Bm
you're the only one that pulls me in, 
            A
you changed everything. 


Pre-Chorus
   G                A
e|---------------------------------|
B|---------------------------------|
G|----0---0---0---0---2---2---2----|
D|------0---0---0-------2---2---2--|
A|------------------0--------------|
E|--3------------------------------|

   D*                
e|---------------------------------|
B|---------------------------------|
G|----2---2---2---2---2---2---2----|
D|--0---0-------0-------0-------0--|
A|----------4-------2-------0------|
E|---------------------------------|

   G*                
e|---------------------------------|
B|---------------------------------|
G|----0---0---0---0---0---0---0----|
D|------0---0---0-------0---0---0--|
A|---------------------------------|
E|--3---------------3--------------|

   A*                
e|---------------------------------|
B|---------------------------------|
G|----2---2---2---2----------------|
D|------2---2---2------------------|
A|--0---------------0--------------|
E|---------------------------------|


    G     A      D*
and all I have, doesn't seem so significant, 
            G        A
and at the drop of a hat, 
D*
I could leave almost everything,
           G*             A*
that I've ever known, so here we go...

(strum)
D                  G
step out into the wild,
            D                G
there's a beautiful storm in your eyes, 
      D               G
we're perfectly intertwined 
            D
and if it's quite alright, 
A
you could be my way of life.

(repeat intro)


Verse:
D
sea salt sits on your lips, 
D
birds fall earthward from cliffs,
D                         Bm        
thought i couldn't do this but i'm fine, 
              A
'cause you're by my side.

    G     A      D*
and all I have, doesn't seem so significant, 
            G        A
and at the drop of a hat, 
D*
My whole worlds getting different
    G*          A*
so here we go, off road. 

CHORUS x2

D                  G
step out into the wild,
            D                G
there's a beautiful storm in your eyes, 
      D               G
we're perfectly intertwined 
            D
and if it's quite alright, 
A
you could be my way of life.

(repeat chorus chords for aahh's)

MIDDLE 8
       Bm                          A* (577655)
and we take another step into the truly unknown, 
            Bm                             A*
don't know why but it's somewhere that we have to go 
          G* (355433) A*
and it's dangerously wonderful 
        Bm                 A     
so come on, come on, come on, come on...

CHORUS

D                  G
step out into the wild,
            D                G
there's a beautiful storm in your eyes, 
      D               G
we're perfectly intertwined 
            D
and if it's quite alright, 
A
you could be my way of life.

D till end. 
Tap to rate this tab
# A B C D E F G H I J K L M N O P Q R S T U V W X Y Z