Lexia - Still Here tab

-------------------------------------------------------------------------------
 			     Still Here - Lexia
 -------------------------------------------------------------------------------
 Tabbed by: JosieBruinBear
 Tuning: Whole step down.  DGCFAD

http://www.myspace.com/lexia

  This song is pretty simple, and it's basically made out of two riffs.  

  Riff one, play this once for the intro, once after the first chorus, twice for 
each verse, and once for the outro.  I like to finger pick this, using my thumb to 
pluck the G or C string, and my index finger to pluck up the A and F string.  
Lexia finger picks it in her acoustic video.  But this could also be played using a pick.

       C                   EM                  F                   C         EM
 d|---------------------------------------------------------------------------------------|
 A|------1----1----1----1----0----0----0----0----1----1----1----1----1----1----0----0-----|
 F|------0----0----0----0----0----0----0----0----2----2----2----2----0----0----0----0-----|
 C|------------------------2----2----2----2----3----3----3----3--------------2----2-------|
 G|----3----3----3----3--------------------------------------------3----3-----------------|
 D|---------------------------------------------------------------------------------------|

   Riff two, play this in the chorus.  When going into the bridge strum the last F 
the same way you would the first, and then start this whole riff over for the bridge.

      DM                  F                   C                   AM7

 d|----1----1----1----1----1----1----1----1----0----0----0----0----------------------|
 A|----3----3----3----3----1----1----1----1----1----1----1----1----1----1----1----1--|
 F|----2----2----2----2----2----2----2----2----0----0----0----0----0----0----0----0--|
 C|---0----0----0----0-----3----3----3----3----2----2----2----2----2----2----2----2--|
 G|-----------------------3----3----3----3----3----3----3----3----0----0----0----0---|
 D|----------------------------------------------------------------------------------|

 d|----1----1----1----1----1-(R)-|
 A|----3----3----3----3----1-(I)-|
 F|----2----2----2----2----2-(N)-|
 C|---0----0----0----0-----3-(G)-|
 G|-----------------------3--(!)-|
 D|------------------------------|

That's it, pretty simple!! (=
Tap to rate this tab
 
# A B C D E F G H I J K L M N O P Q R S T U V W X Y Z