Liam Dinsmore - I Am Here For You tab

I Am Here For You
Liam Dinsmore
Completely Utterly Abitrary

All guitars down a half-step   -  #DGCFAd

Guitar 1

------------------------|
------------------------|
-----6----7----4---4----|
---0--0--0-0--0-0-0-0---|
------------------------|
-7------5----3---3------|    x 3

followed by

--------------------------------------|
--------------------------------------|
---2----2----2----2-------------------|
--0-0--0-0--0-0--0-0------------------|
--------------------------------------|
-2----2----0----0---------------------|

Guitar 2

---9---9--9p7--7--7-------------------|
----7---7----7--7--7------------------|
-----7---7----7--7--7-----------------|
-7------------------------------------|
--------------------------------------|
--------------------------------------|  x 3

-0--0--0--0---------------------------|
--7--7--7--7--------------------------|
---7--7--7--7-------------------------|
--------------------------------------|
--------------------------------------|
--------------------------------------|

Riff 1

----5-----------2---------------------|
--7-----------3-----------------------|
-0-0---------0-0----------------------|
--------------------------------------|
--------------------------------------|
--------------------------------------|

Bridge (electric, heavy distortion)

---------------------0-----------------|
---------------------0-----------------|
---------------------0-----------------|
-11-11----11-11---11-11----------------|
-9--9-----9--9----9--9-----------------|
-7--7-----7--7----7--7-----------------|    x 4

---------------------0-----------------|
---------------------0-----------------|
---------------------0-----------------|
-16-16----16-16---16-14----------------|
-14-14----14-14---14-12----------------|
-12-12----12-12---12-10----------------|   x  2

---------------------0-----------------|
---------------------0-----------------|
---------------------0-----------------|
-11-11----11-11---11-11----------------|
-9--9-----9--9----9--9-----------------|
-7--7-----7--7----7--7-----------------|    x 2

Bridge guitar 2 during last 2 refrains

-7-----5-----3-----------7----5------------|
--7-7---5-5---3-3---------7-7--5-5---------|
---7-----6-----4-----------7----6----------|
-------------------------------------------|
-------------------------------------------|
-------------------------------------------|

Final Bridge Part (both guitars)

-(3)-(3)--(3)--(3)-(3)-----|
-(3)-(3)--(3)--(3)-(3)-----|
-(3)-(3)--(3)--(3)-(3)-----|
-7--7----7---7--7----------|
-5--5----5---5--5----------|
-3--3----3---3--3----------|


Lyrics


She's on her own again
Against the wind
But no one notices a thing at all

Too much wine again
As she falls asleep
Clutching the broken memories and things

But I am here for you

The threadbare carpet
Which you called home
The edges frayed in all the wrong places

You can put your silence
In my open hand
I'm sorry about your mom and dad, I am

Cos I see how it's hurting you

She's on her own again
Across the sea
Tap to rate this tab
 
# A B C D E F G H I J K L M N O P Q R S T U V W X Y Z