Song name
# A B C D E F G H I J K L M N O P Q R S T U V W X Y Z

Liam Finn - Second Chance Acoustic tab

----------------------------------------------------------------------------
			     Second Chance -- Liam Finn
----------------------------------------------------------------------------
Tabbed by:Adam Fortuna
Email:afortuna1435@yahoo.com

Tuning:standard

These are the main chords he uses throughout the song.  Loops them through the entire thing

E|------4--------9------------------------------------------------------------|
B|------4--------9------5------4----------------------------------------------|
G|------5--------9------6------5----------------------------------------------|
D|------6--------7------7------6----------------------------------------------|
A|----------------------7------6----------------------------------------------|
E|----------------------------------------------------------------------------|


 This is the part where he strums quickly (35 seconds in)
e|-----------------------------------------------------------------------------|
B|-----------------------------------------------------------------------------|
g|-----6------9----------------------------------------------------------------|
d|-----6------9----7-----6-----------------------------------------------------|
a|-----4------7----7-----6-----------------------------------------------------|
E|-----------------5-----4-----------------------------------------------------|

Then during the when the chorus starts he loops in at (1:51)
e|----------------------------------------------------------------------------|
B|----------------------------------------------------------------------------|
G|----------------------------------------------------------------------------|
D|--------------------------------9s6-------9s6-------------------------------|
A|---------9s11-------9s11----------------------------------------------------|
E|------9----------9----------12--------12------------------------------------|

Play around in that scale to figure out exactly what he does.

| /  slide up
| \  slide down
| h  hammer-on
| p  pull-off
| ~  vibrato
| +  harmonic
| x  Mute note
===============================================================================
Tap to rate this tab
# A B C D E F G H I J K L M N O P Q R S T U V W X Y Z