Song name
# A B C D E F G H I J K L M N O P Q R S T U V W X Y Z

Lianne La Havas - Au Cinema tab

    ____________________________
   / Lianne La Havas           /
  / Au Cinéma                 /
 / Is Your Love Big Enough?  /
/___________________________/


part-A:
 Em9                    4x Gm7                    4x
|------------------------||------------------------|
|------0---7---8---0-----||------3---5---6---3-----|
|------7---7---7---7-----||------3---3---3---3-----|
|--5-------------------5-||--3-------------------3-|
|----7---7-------7---7---||----5---5-------5---5---|
|0-----------0-----------||3-----------3-----------|


part-B:
 A7                       A7          Gm7
|------------------------|------------------------|
|----------5-----------5-|------------------------|
|------6-----------6-----|------6-----------3-----|
|--5-----5-----5-----5---|--5-----------3---------|
|----7-----------7-------|----7---7\5-----5---5/7-|
|5-----------5-----------|5-----------3-----------|


part-C:
 A7                       A7
|------------------------|------------------------|
|----------5-----------5-|----------5-----------5-|
|------6-----------6-----|------6-----------6-----|
|--5-----5-----5-----5---|--5-----5-----5-----5---|
|----7-----------7-------|----7-----------7-------|
|5-----------5-----------|5-----------5-----------|



 FORM
*****************
1.Verse         A A
1.Pre-chorus    B C
1.Chorus        A A C

2.Verse         A A
2.Pre-chorus    B B B C
2.Chorus        A A B B C

3.Chorus        A A   (breakdown during the first 4x Em9)
4.Chorus        A A

5.Chorus        A



+--------------------------------------------------------------------------+
Jon Sebastian Frederiksen - 13th /December /12
Just mail me at Maitinin@gmail.com with questions, comments and corrections!
Tap to rate this tab
 
# A B C D E F G H I J K L M N O P Q R S T U V W X Y Z