Song name
# A B C D E F G H I J K L M N O P Q R S T U V W X Y Z

Lianne La Havas - Elusive tab

-------------------------------------------------------------------------------
                             ELUSIVE - Lianne La Havas (Scott Matthews cover)
-------------------------------------------------------------------------------
Tabbed by: k8mc
E-mail: x_k8_xx@yahoo.co.uk

Tuning: standard

This needed to be tabbed! I've done my best with it...
Not completely sure about the picking pattern in parts of the choruses
but other than that I'm pretty certain it's all correct, any comments
are appreciated. enjoy :)


INTRO

e|----------------------------------------------------------------|
B|----------------------------------------------------------------|
G|----------------------------------------------------------------|
D|----------------------------------------------------------------|
A|--------7~------------------------------7~-----\6~-------\\\2///|
E|0-------------------------------0-------------------------------|

VERSE 1

^* indicates pulling your right hand away from the strings (^)
and hitting back down on them with the back of your nails (*)
to get a tapping sound (watch a live video to see what I mean)

e|-------------------------------------------------------------------|
B|-------------------------------------------------------------------|
G|------8-------8-------8-------8p6-----6-------6-------6-------6h8--|
D|--6-------6^*-----6-------6^*-----6-------6^*-----6-------6^*------|
A|7-------7-------7-------7-------7-------7-------7-------7----------|  x3
E|----0---------------0---------------0---------------0--------------|

e|----------------------------------------------------------------|
B|----------------------------------------------------------------|
G|------8-------8-------8-------8p6-----6-------6-------6---------|
D|--6-------6^*-----6-------6^*-----6-------6^*-----6-------6-----|
A|7-------7-------7-------7-------7-------7-------7-------7-------|
E|----0---------------0---------------0---------------0-------0-0-|

CHORUS 1

e|----------------------------------------------------------------|
B|--------------------------------------0-------------------------|
G|------------------------------------9---------------------------|
D|----------------------------------7-----------------------------|
A|--------------------------------9-------------------------------|
E|5~--------------------------------------------------------------|

e|----0-----------------------------0-----------------------------|
B|------0-------------------------------0-------------------------|
G|------------------------------------8---------------------------|
D|----------------------------------------------------------------|
A|--11------------------------------------------------------------|
E|9-------------------------------7-------------------------------|

e|----------------------------------------------------------------|
B|--------------------------------------0-------------------------|
G|----4-------------------------------6------------------^*-------|
D|------4------------------------------------------------^*-------|
A|--2-------------------------------4--------------------^*-------|
E|4-------------------------------5----------------------^*-------|

VERSE 2

e|-------------------------------------------------------------------|
B|-------------------------------------------------------------------|
G|------8-------8-------8-------8p6-----6-------6-------6-------6h8--|
D|--6-------6^*-----6-------6^*-----6-------6^*-----6-------6^*------|
A|7-------7-------7-------7-------7-------7-------7-------7----------|  x4
E|----0---------------0---------------0---------------0--------------|

e|----------------------------------------------------------------|
B|----------------------------------------------------------------|
G|------8-------8-------8-------8p6-----6-------6-------6---------|
D|--6-------6^*-----6-------6^*-----6-------6^*-----6-------6-----|
A|7-------7-------7-------7-------7-------7-------7-------7-------|
E|----0---------------0---------------0---------------0-------0-0-|

CHORUS 2

e|----------------------------------------------------------------|
B|--------------------------------------0-------------------------|
G|------------------------------------9---------------------------|
D|----------------------------------7-----------------------------|
A|--------------------------------9-------------------------------|
E|5~--------------------------------------------------------------|

e|----0-------0-------0-------0-----0-------0-------0-------------|
B|------0-------0-------0-------0-------0-------0-------0---------|
G|------------------------------------8-------8-------8-----------|
D|----------------------------------------------------------------|
A|--11------11------11------11-------------------------------11p9-|
E|9-------9-------9-------9-------7-------7-------7---------------|

e|----------------------------------------------------------------|
B|--------------------------------------0-------0-------0-------0-|
G|----4-------4-------4-------4-------6-------6-------6-------6---|
D|------4-------4-------4-------4---------------------------------|
A|--2-------2-------2-------2-------4-------4-------4-------4-----|
E|4-------4-------4-------4-------5-------5-------5-------5-------|


BRIDGE

e|----------------------------------------------------------------|
B|------9-----10---------------------14~----14~-14~-----14~-14~---|
G|----9------11---------------------13-----13--13------13--13-----|
D|----------------------------------------------------------------|
A|11--------12--------------------14------14--14------14--14------| x2
E|----------------------------------------------------------------|

e|----------------------------------------------------------------|
B|------9-----10h1210h1210h1210------14~----14~-14~-----14~-14~---|
G|----9------11---------------------13-----13--13------13--13-----|
D|----------------------------------------------------------------|
A|11--------12--------------------14------14--14------14--14------|
E|----------------------------------------------------------------|

e|---------------------------------------------------------------\|
B|------9-----10--------------------10--10--10--10--10--10--10h12\|
G|----9------11--------------------11--11--11--11--11--11--11----\|
D|---------------------------------------------------------------\|
A|11--------12--------------------12--12--12--12--12--12--12-----\|
E|---------------------------------------------------------------\|


CHORUS 3
     rest until

to
  you      he says my     destiny ...
e|----------------------------------------------------------------|
B|--------------------------------------0-------0-------0-------0-|
G|----4-------4-------4-------4-------6-------6-------6-------6---|
D|------4-------4-------4-------4---------------------------------|
A|--2-------2-------2-------2-------4-------4-------4-------4-----|
E|4-------4-------4-------4-------5-------5-------5-------5-------|

e|----------------------------------------------------------------|
B|------0-------0-------0-------0-------0-------0-------0-------0-|
G|----6-------6-------6-------6-------9-------9-------9-------9---|
D|----------------------------------7-------7-------7-------7-----|
A|--4-------4-------4-------4-----9---------------9---------------|
E|5-------5-------5-------5---------------9---------------9-------|

e|----0-------0-------0-------0-----0-------0-------0-------------|
B|------0-------0-------0-------0-------0-------0-------0---------|
G|------------------------------------8-------8-------8-----------|
D|----------------------------------------------------------------|
A|--11------11------11------11-------------------------------11p9-|
E|9-------9-------9-------9-------7-------7-------7---------------|

e|----------------------------------------------------------------|
B|--------------------------------------0-------0-------0-------0-|
G|----4-------4-------4-------4-------6-------6-------6-------6---|
D|------4-------4-------4-------4---------------------------------|
A|--2-------2-------2-------2-------4-------4-------4-------4-----|
E|4-------4-------4-------4-------5-------5-------5-------5-------|

e|--------------------------------|
B|------0-------0-------0---------|
G|----6-------6-------6--^*-------|
D|-----------------------^*-------|
A|--4-------4-------4----^*-------|
E|5-------5-------5------^*-------|

OUTRO

e|------------------------------------------------------------------|
B|------------------------------------------------------------------|
G|------8-------8-------8-------8p6-----6-------6-------6-------6h8-|
D|--6-------6^*-----6-------6^*-----6-------6^*-----6-------6^*-----|
A|7-------7-------7-------7-------7-------7-------7-------7---------|
E|----0---------------0---------------0---------------0-------------|

e|----------------------------------------------------------------|
B|----------------------------------------------------------------|
G|------8-------8-------8-------8p6-----6-------6-------6---------|
D|--6-------6^*-----6-------6^*-----6-------6^*-----6-------6-----|
A|7-------7-------7-------7-------7-------7-------7-------7-------|
E|----0---------------0---------------0---------------0-------0-0-|

e|-11-------|
B|--11------|
G|---11-----|
D|----11----|
A|-----11---|
E|------11--|


************************************

| /   slide up
| \   slide down
| h   hammer-on
| p   pull-off
| ~   vibrato
| +   harmonic
| x   Mute note
| b   Bend
| ()  optional

************************************
Tap to rate this tab
# A B C D E F G H I J K L M N O P Q R S T U V W X Y Z