Song name
# A B C D E F G H I J K L M N O P Q R S T U V W X Y Z

Liars - Be Quiet Mt Heart Attack tab

LIARS
BE QUIET MT. HEART ATTACK!
DRUM'S NOT DEAD
Tabbed by: marshalljenkins

This is MY FIRST TAB. This was the closest I can get, I did my best to sound it out by ear.

I'm positive that this is nowhere near 100 percent correct.

So, comment if you have any corrections!

Turn your reverb UP. Way up, actually. Listen to the song for timing, Aaron plays this 
song kinda weird. When he's
playing the first chord, you will notice that he plays the C note on the G string on and off.

So it's something like this:


e|-7-7-7-7-7-7-7-7-7-7-7-7-7-7-7-|
B|-5-5-5-5-5-5-5-5-5-5-5-5-5-5-5-|
G|-5-5-5---5-----------5-5-5-5-5-|
D|-------------------------------|
A|-------------------------------|
E|-------------------------------|

After that chord, he plays this one:

e|-5-5-5-5-5-5-5-5-|
B|-3-3-3-3-3-3-3-3-|
G|-4-4-4-4-4-4-4-4-|
D|-0-0-0-0-0-0-0-0-|
A|-----------------|
E|-----------------|

Then he returns to the first chord!

The song is just those two chords, back and forth. It's a pretty simple song to play.

Enjoy! Liars kick ass!
Tap to rate this tab
# A B C D E F G H I J K L M N O P Q R S T U V W X Y Z