Song name
# A B C D E F G H I J K L M N O P Q R S T U V W X Y Z

Libertines - Back From The Dead tab

-------------------------------------------------------------------------------
	          Back From The Dead-The Libertines
-------------------------------------------------------------------------------
Tabbed by: Dave Swan
Email: daveyswan@hotmail.com

Tuning: Standard

e|-0-----------0------------------------------------------------------------|
B|---3--2--0------3---2-----------------------------------------------------|
G|------------------------2-------------------------------------------------|
D|--------------------------------------------------------------------------|
A|--------------------------------------------------------------------------|
E|--------------------------------------------------------------------------|

Bm
Well I Heard It Said
             A
He had come back from the dead
Gm
And he was playing so fine
F#m
Scooping up
The soul of the wine
Bm
Have courage, my boy
             A
When you look them in the eye
Gm
And try not to look too scum
F#m
Cause you need their money now

You need their money

Bridge  Bm, A, G#,G,F#

Bm                    A
I heard Him Say No happy place to be
                 Gm
There's nothing nice about me
                F#m
There's nothing nice around me

Bridge  Bm, A, G#,G,F#

Bm
I heard it said
            A
He had come back from the dead
Gm
I keep it in reach
F#m
Keep it in the fridge
Bm
Courage, my dear
            A
When you look them in the eye
Gm
Laugh if they try to be funny
F#m
Because you need their money now

You need their money

Ending: Bm,A,Gm,F#m,Bm,A,G#,G,F#

e|-0-----------0------------------------------------------------------------|
B|---3--2--0------3---2-----------------------------------------------------|
G|------------------------2-------------------------------------------------|
D|--------------------------------------------------------------------------|
A|--------------------------------------------------------------------------|
E|--------------------------------------------------------------------------|

Sounds About Right! Anything to say? daveyswan@hotmail.com!!!
Tap to rate this tab
# A B C D E F G H I J K L M N O P Q R S T U V W X Y Z