Song name
# A B C D E F G H I J K L M N O P Q R S T U V W X Y Z

Libertines - Seven Deadly Sins tab

Song: Seven Deadly Sins
Artist: The Libertines
Tunning: standard
Tabbed By: INDIE NATION


e----------13-------12--11---10-----------------10-------9---8-------------|
B-----10------10-------------------10-------8--------8---------------------|
G--------------------------------------------------------------------------|
D--------------------------------------------------------------------------|
A--------------------------------------------------------------------------|
E--------------------------------------------------------------------------|
REPEAT ABOVE TWICE

e-----5-8-5-------------------------------------------------|
B--6---------8-6--------------------------------------------|
G-----------------7----------7-10-7-------------------------|
D--------------------7-h-10---------10-7-----------7-10-----|
A-----------------------------------------10-8-10-----------|
E-----------------------------------------------------------|

e------------5-8-5---------------------------------------------------|
B-------------------8-6----------------------------------------------|
G-7-10-7-10----------7----7-10-7-------------------------------------|
D---------------------------------7h10--10-7------------7--10--------|
A--------------------------------------------10--8---10--------------|
E--------------------------------------------------------------------|

e-----------------------------9-h-7----------------------7-9--|
B----10p8--------------------------8-10---10p8--10p8--10------|
G---------10p7-10p7-10----------------------------------------|
D-------------------------------------------------------------|
A-------------------------------------------------------------|
E-------------------------------------------------------------|

e-10--12-13--15--15/6\5--13-6--5h6p5--3h5p3-1---|
B-----------------------------------------------|
G-----------------------------------------------|
D-----------------------------------------------|
A-----------------------------------------------|
E-----------------------------------------------|

e----0h1p0----------13-----12--11--10------10-----9--8---|
B-----------3-1--10----10-------------10-8----8----------|
G--------------------------------------------------------|
D--------------------------------------------------------|
A--------------------------------------------------------|
E--------------------------------------------------------|


during this, there are some chords playing, and i think it is:
intro  (F, G x2)    (F, G7, C7, A# C7 x 2 ) F, D7, A#, A#m, F, G, F, G
and that is just repeated throughout. there is a breakdown I think its dm but not sure.
Tap to rate this tab
# A B C D E F G H I J K L M N O P Q R S T U V W X Y Z