Song name
# A B C D E F G H I J K L M N O P Q R S T U V W X Y Z

Libertines - Saga tab

-------------------------------------------------------------------------------
			     The Saga - TheLibertines
-------------------------------------------------------------------------------
Tabbed by:Ollie Taylor
Email:ollietaylor19@hotmail.com

Tuning:standard


Intro                           x3
e|----5-5-5---8-8----5-5---3-3-3---3-------------|
B|----5-5-5---8-8----5-5---3-3-3---5-------------|
G|----6-6-6---9-9----6-6---4-4-4---5-------------|
D|----7-7-7---10-10--7-7---5-5-5---5-------------|
A|----7-7-7---10-10--7-7---5-5-5---3-------------|
E|----5-5-5---8-8----5-5---3-3-3---3-------------|
x1
e|----5-5-5---8-8----12-|
B|----5-5-5---8-8----12-|
G|----6-6-6---9-9----13-|
D|----7-7-7---10-10--14-|
A|----7-7-7---10-10--14-|
E|----5-5-5---8-8----12-|

Verse
x4

e|----5-5--345-5-5--3-3----------------|
B|----5-5--345-5-5--3-3----------------|
G|-------------------------------------|
D|-------------------------------------|
A|-------------------------------------|
E|-------------------------------------|

Bridge

e|-----5-5-5-5-5/10-10------------------------|
B|-----5-5-5-5-5/10-10------------------------|
G|-------------------------1--1--1------------|
D|-------------------------2--2--2------------|
A|-------------------------2--2--2------------|
E|--------------------------------------------|

e|----5-5-5---8-8----5-5---3-3-3---3--------------|
B|----5-5-5---8-8----5-5---3-3-3---5--------------|
G|----6-6-6---9-9----6-6---4-4-4---5--------------|
D|----7-7-7---10-10--7-7---5-5-5---5--------------|
A|----7-7-7---10-10--7-7---5-5-5---3--------------|
E|----5-5-5---8-8----5-5---3-3-3---3--------------|

e|----5-5-5---8-8----12-|
B|----5-5-5---8-8----12-|
G|----6-6-6---9-9----13-|
D|----7-7-7---10-10--14-|
A|----7-7-7---10-10--14-|
E|----5-5-5---8-8----12-|

-Verse
x4

e|----5-5--345-5-5--3-3--------------------|
B|----5-5--345-5-5--3-3--------------------|
G|-----------------------------------------|
D|-----------------------------------------|
A|-----------------------------------------|
E|-----------------------------------------|


Bridge
e|-----5-5-5-5-5/10-10--------------------|
B|-----5-5-5-5-5/10-10--------------------|
G|-------------------------1--1--1--------|
D|-------------------------2--2--2--------|
A|-------------------------2--2--2--------|
E|----------------------------------------|


solo
e -------0-----------------0---------------------------|
B|----------0----1----------0-1----1-------------------|
G|----------------2-------------------2----------------|
D|----------------2-------------------2----------------|
A|-----------------------------------------------------|
E|-----------------------------------------------------|
    x2
e|---------------------------------------------------------|
B|---------------------------------------------------------|
G|--------------------2---4----5------12---9----7----------|
D|---------------------------------------------------------|
A|---------------------------------------------------------|
E|---------------------------------------------------------|

e|-------------------------------------------------------------|
B|-------------------------------------------------------------|
G|------7----9----10--------17----14----12---------------------|
D|-------------------------------------------------------------|
A|-------------------------------------------------------------|
E|-------------------------------------------------------------|

e|-------------------------------------------------------------------------|
B|----------------------------------------------------------1--------------|
G|---2-----4----5---4-------2-------4---5--------------2-------------------|
D|-----------------------------------------------------------2-------------|
A|-------------------------------------------------------------------------|
E|-------------------------------------------------------------------------|


break
   x 2
e|------5--5---3--5---------------5--5---3---5---3---------------------------------------|
B|-----5--5----3--5---------------5--5---3--5----3---------------------------------------|
G|-----6--6----4-6---------------6---6--4---6----4---------------------------------------|
D|-----7--7----5--7---------------7--7---5---7----5--------------------------------------|
A|-----7--7----5--7---------------7--7---5---7----5--------------------------------------|
E|-----5-5-----3--5---------------5--5---3---5----3--------------------------------------|


-Verse
x4

e|----5-5--345-5-5--3-3--------------------|
B|----5-5--345-5-5--3-3--------------------|
G|-----------------------------------------|
D|-----------------------------------------|
A|-----------------------------------------|
E|-----------------------------------------|


Bridge
e|-----5-5-5-5-5/10-10--------------------|
B|-----5-5-5-5-5/10-10--------------------|
G|-------------------------1--1--1--------|
D|-------------------------2--2--2--------|
A|-------------------------2--2--2--------|
E|----------------------------------------|

end

e|----5-5-5---8-8----5-5---3-3-3---3-------------|
B|----5-5-5---8-8----5-5---3-3-3---5-------------|
G|----6-6-6---9-9----6-6---4-4-4---5-------------|
D|----7-7-7---10-10--7-7---5-5-5---5-------------|
A|----7-7-7---10-10--7-7---5-5-5---3-------------|
E|----5-5-5---8-8----5-5---3-3-3---3-------------|


| /  slide up
| \  slide down
| h  hammer-on
| p  pull-off
| ~  vibrato
| +  harmonic
| x  Mute note
===============================================================================
Tap to rate this tab
# A B C D E F G H I J K L M N O P Q R S T U V W X Y Z