Song name
# A B C D E F G H I J K L M N O P Q R S T U V W X Y Z

Libertines - Breck Road Lover tab

Breck Road Lover, Solo - The Libertines

it's a demo, it's on none of their albums, you can find it on youtube or you can 
download it legally at albionarks.com
 
  4 + 1 ...
e|---------------------------------------------------------------|
B|---------------------------------------------------------------|
G|5/6-7-------7h9-7------------------------------------/9---9----|
D|--------------------------7---7b8r7----------------------------|
A|------------------10-------10-------10---7-10------------------|
E|---------------------------------------------------------------|
 

e|----------------------------------------------------------------|
B|----------------------------------------------------------------|
G|7--------4h5p4---2--------------4h5p4----2----------------------|
D|----------------------------------------------5-----------------|
A|----------------------------------------------------------------|
E|--------------------------------------------------3-------------|
Tap to rate this tab
 
# A B C D E F G H I J K L M N O P Q R S T U V W X Y Z