Song name
# A B C D E F G H I J K L M N O P Q R S T U V W X Y Z

Libertines - Cyclops tab

it's an unreleased song, you can find it on youtube or download it free and 
legally from albionarks.com

  
The Libertines - Cyclops, Intro
_____________________________________________________


e|/7-------7---------------7---------------8-------8-------8-------|
B|/8-----------x-------x-------x-------10------10----------10--10--|
G|/7---------------7---------------7---------------7-------7-------|
D|/9---------------------------------------------------------------| 
A|-----------------------------------------------------------------|
E|-----------------------------------------------------------------|

e|---------7-----------7---7---------------------------------------|
B|-8---------------------------------------------------------------|
G|-7---------------7-----------7---------------------------0-------|
D|-9---------------------------------------7-------7-------0-------| 
A|---------------------------------10----------10------------------|
E|-----------------------------------------------------------------|
                                                     
e|-----------------------------------------------------------------|
B|-0-------3-----------------------0-------------------------------|
G|-0-------4-/-7-------------------0------2b-----------------------|
D|-0-------0-----------------------0------0------------------------|
A|-----------------------------------------------------------------|
E|-----------------------------------------------------------------|
                                         ^^quarter-step bend

e|---------------------------------8---7---5-----------------------|
B|-0-------------------------------8---7---5---8---8---8---10------|
G|-0-------------------------------9-----------9---9---9---11------|
D|-0---------------------------------------------------------------|
A|-----------------------------------------------------------------|
E|-----------------------------------------------------------------|
   

then: Gm, Cm Verse Progression, 

haven't worked out anything else so this is only the intro sorry
Tap to rate this tab
# A B C D E F G H I J K L M N O P Q R S T U V W X Y Z