Song name
# A B C D E F G H I J K L M N O P Q R S T U V W X Y Z

Libertines - Dont Look Back Into The Sun tab

This sounds pretty good to me, not too hard to play either, one of my first
tabs so feedback please!


Intro: (guitar 1)
e---------------------7-7--7777-5-5--5555--12121212121212121010101010101010--|
B---------------------8-8--8888-7-7--7777--12121212121212121010101010101010--|
G---------------------7-7--7777-7-7--7777--12121212121212121111111111111111--|
D--DRUMS---------------------------------------------------------------------|
A----------------------------------------------------------------------------|
E----------------------------------------------------------------------------|

e------------------------------7-----7-----7-----7---------------------------|
B-8-8--888/10-10-101010-0-0-8--8--8--8--8--8--8--8---------------------------|
G-9-9--999/11-11-111111-0-0-7-----7-----7-----7------------------------------|
D----------------------------------------------------------------------------|
A----------------------------------------------------------------------------|
E----------------------------------------------------------------------------|

e------------------------|---------------------------------------------------|
B------------------------|-12------12------12---12----12--12--12--1212121212-|
G--12----12----12--12----|-12------12------12---1212121212121212121212121212-|
D----1212--1212--12-- x3 |---12-12---12-12---12-1212121212121212121212121212-|
A------------------------|---------------------------------------------------|
E------------------------|---------------------------------------------------|

pick slide....yeahhhh!

 (main riff)
e----------------------------------------------------------------|
B----------------------------------------------------------------|
G--4-5-7-5-4---4-5-7-5-4-----4-4---4-5-7-4-5-7-4h5--4-5-7-5-4-4--|
D----------------------------------------------------------------|
A----------------------------------------------------------------|
E----------------------------------------------------------------|

e------3-----3-------5----3--2-3-2-3--3-3-3--3-3-----------------|
B---3h5---3h5---5h3----3--3--------3--3-3-3--3-3--3-3-1-1--------|
G---------------------------------------------------------4--2---|
D----------------------------------------------------------------|
A----------------------------------------------------------------|
E----------------------------------------------------------------|

Verse 1 Chords: (regular open chords)
 G                 D
 Don't look back into the sun
Em                    D
 now you know that the time has come
C                       D              G
 and they said it would never come for you
             D
ah ah ah oh
G                D
oh my friend you haven't changed
Em                      D
 your looking rough and living strange
C                       D              G
 and i know, you've got a taste for it too
             D
ah ah ah oh

Tab for chorus:
e-------------------------------------------------------------|
B-------------------------------------------------------------|
G---7--5---4---2-0----0-2---4---5----0------------------------|
D-------------------------------------------------------------|
A-------------------------------------------------------------|
E-------------------------------------------------------------|
  (this is played twice in the chorus. on the second time the last note is
   on the 7th fret instead of the open G)
C                                                    G
  They will never forgive you but they won't let you go
C                                                  D
  She will never forgive you but she won't let you go oh no

Verse 2: (chords same as verse1 but also has intro chords over the top)

don't look back into the sun
you've cast your pearls but you're on the run
and all the lies you said, who did you say?
then they played that song at the death disco
it started fast but it ends so slow
and all that time it reminded me of you

(chorus)
(main riff)

for the ooohhhh part the main riff is played with guitar 2 playing the

verse chords over the top, but this time the chords are played as barre

chords instead of open
Tap to rate this tab
 
# A B C D E F G H I J K L M N O P Q R S T U V W X Y Z