Song name
# A B C D E F G H I J K L M N O P Q R S T U V W X Y Z

Libertines - Dilly Boys tab

Tabbed from Pete Doherty's live performance (below)
http://www.youtube.com/watch?v=hEbzFys7d3c&feature=related
tabbed by: halfoflessthanfiftypee


(Some of the )Chords Used

e|5               e|1
B|5    A (Barre)  B|1    F (Barre)
G|6    Chord      G|2    Chord
D|7               D|3
A|7               A|3
E|5               E|1

e|0               e|x
B|0    E          B|6   Mystery Chord 1
G|1    Chord      G|8   (represented by *h*)
D|2               D|7
A|2               A|8
E|0               E|


e|x
B|5    Mystery Chord 2
G|7    Represented by %j%
D|6
A|7
E|x


Intro

e|-----------5x5-8--5-x5x5-8-5-|
B|-----------5x5-5--5-x5x5-5-5-|
G|-----------6x6-6--6-x6x6-6-6-|
D|-----------7x7-5--5-x7x7-5-5-|
A|-----------7x7-7--7-x7x7-7-7-|
E|-0-3-0-4-0-5x5-5--5-x5x5-5-5-|

e|---------------------------|
B|-6x6x6x6x6xx5x5x5----------|
G|-8x8x8x8x8xx7x7x7----------|
D|-7x7x7x7x7xx6x6x6--7-9^-7--|
A|-8x8x8x8x8xx7x7x7/9--------|
E|---------------------------|

e|5xx5-----5-----------5-|
B|5xx5-----5-----------6-|
G|6xx6-----6-----------6-|
D|7xx7-----7-----------7-|
A|7xx7-----7-----------7-|
E|5xx5-03455-0-3-0-4-0-5-|

Verse

A
My love wrote the words to the saddest song, the songs that said that life’s too long and
      F                  E
The   moon’s always blue just because

e|-----------5xx5-----5-----------5-|
B|-----------5xx5-----5-----------6-|
G|-----------6xx6-----6-----------6-|
D|---7-9^-7--7xx7-----7-----------7-|
A|7/9--------7xx7-----7-----------7-|
E|-----------5xx5-03455-0-3-0-4-0-5-|

A
Why don't you sing me those other songs again?
All the songs that say life's worth the worry and the pain

    *h*                          %j%
The sun smiles through the rain, just because

e|-----------5xx5-|
B|-----------5xx5-|
G|-----------6xx6-|
D|---7-9^-7--7xx7-|
A|7/9--------7xx7-|
E|-----------5xx5-|


         F        E         F        E              A
shes the sweetest girl, the sweetest girl in the world

@ 0.55 it goes sumthen like

e|--------------------|
B|--14--14-12-10-10---|
G|--------------------|
D|--------------------|
A|--------------------|


She's my moral guide, but she does nothing at all
Smokes all of my bone and stares at the wall
Maybe she'll pace the room, howl at the moon
But still she's the sweetest girl,
No, he's the sweetest girl in the world

Chorus:
A                                    A
Me im just a dilly boy a fresh flower pressed Piccadilly boy, Hands on
       A
Hips , pouts on lips
A         A         A
meat rack jack back dilly boy


But still she's the sweetest girl,
No, he's the sweetest girl in the world

IN China Town They All Go

Solo (1.47)

e|----------5-5---------5----------------------------------------5-|
B|----------5-5---------5------------10---------------10-9-------5-|
G|--9-9-7-6-6-6-9-9-7-6-6-6-7-9-10-10--10-9h10-9h10-9-----10-9-7-6-|
D|----------7-7---------7----------------------------------------7-|  x 2
A|----------7-7---------7----------------------------------------7-|
E|----------5-5---------5----------------------------------------5-|

Outro
G barre chord, G#, A
Tap to rate this tab
 
# A B C D E F G H I J K L M N O P Q R S T U V W X Y Z