Song name
# A B C D E F G H I J K L M N O P Q R S T U V W X Y Z

Libertines - Mayday tab

Mayday By The Libertines
Tab By DSAVAGE92
I Absolutely Love This Song But I Couldnt Find A Decent Tab For It So I Decided I 
Would Do One Myself
I Believe Its Pretty Accurate And It Sounds Right To Me When I Play It So Enjoy
And If I Can Play This Song Then I Think Anyone Can Play It
If There Are Any Problems/Mistakes In Here Or If You Dont Understand A Part Please 
Me At Greatsav666@hotmail.co.uk   I Will Get Back To You ASAP!
Also If You Cant Get The Strumming Pattern Right I Will Have A Video Of Me Playing This 
On My Youtube Page Soon!
www.Youtube.com/DSAVAGE92

Intro (0:04-0.09)

e-7-7-7-7-----3--2--------------------------|
B-7-7-7-7--2--3--2--------------------------|
G-8-8-8-8--2--4--3------------  <-----------|Play This 4 Times At The Intro
D-9-9-9-9--2--5--4--------------------------|
A-9-9-9-9--0--5--4--------------------------|
E-7-7-7-7-----3--2--------------------------|

Verse (0:10-0:19)

e---7-------3---2---------------------------|
B---7---2---3---2---------------------------|
G---8---2---4---3-------------  <-----------|Play 6 Times.........I Think
D---9---2---5---4---------------------------|
A---9---0---5---4---------------------------|
E---7-------3---2---------------------------|

Verse 2 (0:19-0:26)

"First You Put The Tongue In............"

e-7--7----------3--3---2--2------|
B-7--7---2--2---3--3---2--2------|
G-8--8---2--2---4--4---3--3------|
D-9--9---2--2---5--5---4--4------|
A-9--9---0--0---5--5---4--4------|
E-7--7----------3--3---2--2------|

"Yeah Yeah,Oh Yeah"

e-7---7---7---7-----|
B-7---7---7---7-----|
G-8---8---8---8-----|
D-9---9---9---9-----|
A-9---9---9---9-----|
E-7---7---7---7-----|

(0:26-0:28)
"Mob Goes Fifteen Ways"
e------------------7--|
B------------------7--|
G-1---1---1---1----8--|
D-2---2---2---2----9--|
A-2---2---2---2----9--|
E-0---0---0---0----7--|

(0:27-0:29)
I Dunno Which Way To Go
e-3---3---3---3----7--|
B-3---3---3---3----7--|
G-4---4---4---4----8--|
D-5---5---5---5----9--|
A-5---5---5---5----9--|
E-3---3---3---3----7--|

(0:29-0:32)
The Mob Goes Fifteen Ways And My Head (My Poor Head), Feels Like A Smashed.....
e---------------------------7-7-7-7-7-7-7--|
B---------------------------7-7-7-7-7-7-7--|
G-1----1----1----1----1-----8-8-8-8-8-8-8--|
D-2----2----2----2----2-----9-9-9-9-9-9-9--|
A-2----2----2----2----2-----9-9-9-9-9-9-9--|
E-0----0----0----0----0-----7-7-7-7-7-7-7--|

(0:33-0:36)
...Window
e------7-7-7-7-----3--2------------|
B------7-7-7-7--2--3--2------------|
G------8-8-8-8--2--4--3------------|
D------9-9-9-9--2--5--4------------|
A------9-9-9-9--0--5--4------------|
E------7-7-7-7-----3--2------------|

"George Is 24 He's Easily Bored"
(0:36-0:39)

e--7-----3--2--2------|
B--7--2--3--2--2------|
G--8--2--4--3--3------|
D--9--2--5--4--4------|   Play This Twice During "George Is 24..."
A--9--0--5--4--4------|
E--7-----3--2--2------|

"All His Life Seen Nothing But Closed Doors, Not Anymore"
(0:39-0:42)

e--7-----3--2--2------|
B--7--2--3--2--2------|
G--8--2--4--3--3------|   Play This Twice During "All His Life..."
D--9--2--5--4--4------|
A--9--0--5--4--4------|
E--7-----3--2--2------|

"First You Put The Tongue In............"
(0:42-0:44)
E-7--7----------3--3---2--2------|
B-7--7---2--2---3--3---2--2------|
G-8--8---2--2---4--4---3--3------|
D-9--9---2--2---5--5---4--4------|
A-9--9---0--0---5--5---4--4------|
E-7--7----------3--3---2--2------|

"Yeah Yeah,Oh Yeah"
(0:45-0:46)
e-7---7---7---7-----|
B-7---7---7---7-----|
G-8---8---8---8-----|
D-9---9---9---9-----|
A-9---9---9---9-----|
E-7---7---7---7-----|

"Mob Goes Fifteen Ways"
(0:48-0:50)
e------------------7--|
B------------------7--|
G-1---1---1---1----8--|
D-2---2---2---2----9--|
A-2---2---2---2----9--|
E-0---0---0---0----7--|
(0:50-0:51)
I Dunno Which Way To Go
e-3---3---3---3----7--|
B-3---3---3---3----7--|
G-4---4---4---4----8--|
D-5---5---5---5----9--|
A-5---5---5---5----9--|
E-3---3---3---3----7--|

The Mob Goes Fifteen Ways And My Head (My Poor Head), Feels Like A Smashed.....
(0:52-0:55)
e---------------------------7-7-7-7-7-7-7--|
B---------------------------7-7-7-7-7-7-7--|
G-1----1----1----1----1-----8-8-8-8-8-8-8--|
D-2----2----2----2----2-----9-9-9-9-9-9-9--|
A-2----2----2----2----2-----9-9-9-9-9-9-9--|
E-0----0----0----0----0-----7-7-7-7-7-7-7--|

...Window
(0:56 Till The End)
e------7-7-7-7-----3--2------------|
B------7-7-7-7--2--3--2------------|
G------8-8-8-8--2--4--3------------|
D------9-9-9-9--2--5--4------------|
A------9-9-9-9--0--5--4------------|
E------7-7-7-7-----3--2------------|

Outro

e------7-7-7-7-----3--2------------|
B------7-7-7-7--2--3--2------------|
G------8-8-8-8--2--4--3------------|
D------9-9-9-9--2--5--4------------|
A------9-9-9-9--0--5--4------------|
E------7-7-7-7-----3--2------------|


Listen To The Song Carefully For The Timing
This Song Is A Novice Difficulty Because Its Short And Easy To Pickup
It Sounds Correct To Me But If You Notice Any Mistakes E-Mail Me At Greatsav666@hotmail.co.uk
Its A Great Song And Took Me About 2 Hours(I Listened To The Song Nearly 100 Times) To 
But I Feel Ive Got It Pretty Accurate
Also If You Dont Want To Play The Full Chords I Feel It Sounds Just As Good Playing Just 
Normal Power Chords So For Example>>>>
                   D--9--
                   A--9--
                   E--7--

Thanks For Viewing Please Rate And This Is My First Tab Enjoy!

Libertines Forever xD
Tap to rate this tab
# A B C D E F G H I J K L M N O P Q R S T U V W X Y Z