Song name
# A B C D E F G H I J K L M N O P Q R S T U V W X Y Z

Libertines - Youre My Waterloo tab

-------------------------------------------------------------------------------
			     YOU'RE MY WATERLOO (SOLO) - The Libertines
-------------------------------------------------------------------------------
Tabbed by: Tristan
Email: tapeason@yahoo.com

Tuning: Standard

e|---/12----12-10----10---------10--12--15--12--10-12-12----------------|
B|----------------13----13-/12------------------------------11--10--8---|
G|----------------------------------------------------------------------|
D|----------------------------------------------------------------------|
A|----------------------------------------------------------------------|
E|----------------------------------------------------------------------|

e|---------------------------------------|
B|--------8--10--8--10b---8--------------|
G|--9~-9-----------------------10----9---|
D|---------------------------------------|
A|---------------------------------------|
E|---------------------------------------|

e|---/12----12-10---(10)--------10--12--15--12-----12-15----/17--15--12-|
B|----------------13----13-/12------------------15----------------------|
G|----------------------------------------------------------------------|
D|----------------------------------------------------------------------|
A|----------------------------------------------------------------------|
E|----------------------------------------------------------------------|

e|-----------------------------------------|
B|-10-10-10-/11--10--8--------8------------|
G|----------------------9--9------10----9--|
D|-----------------------------------------|
A|-----------------------------------------|
E|-----------------------------------------|

This is at least 99% correct; perhaps some other notes had a slide, but it's almost
to tell the difference unless you have perfect pitch. Also, the note in parentheses "(10)"
an optional note. I think Carl might have missed it in the recording. But it's entirely 
to you to decide.
Tap to rate this tab
 
# A B C D E F G H I J K L M N O P Q R S T U V W X Y Z