Song name
# A B C D E F G H I J K L M N O P Q R S T U V W X Y Z

Libertines - Mocking Bird tab

-----------------------------------------------------------------------------
			     THE LIBERINES - MOCKING BIRD
-----------------------------------------------------------------------------
Tabbed by: black1n1whie
Email: black1n1white@yandex.ru

Tuning: Standart

e|--0---0---0---0-----0------0-----0------0-----0----------|
B|--9---7---5---3h5---3h55---3h5---3h55---3h5---3h55-------|
G|---------------------------------------------------------|
D|---------------------------------------------------------|
A|---------------------------------------------------------|
E|---------------------------------------------------------|

e|--0---0---0---0-----0------------------------------------|
B|--9---7---5---3h5---3h55---------------------------------|
G|---------------------------3--2--0----------0------------|
D|------------------------------------2--0h2-----2---------|
A|---------------------------------------------------------|
E|---------------------------------------------------------|

e|---------------------------------------------------------|
B|-----0---------0---------0-------0-------0---------------|
G|-0h1-------0h1-------0h1-----0h1-----0h1-----------------|
D|-------2---------2-------------------------2-------------|
A|---------------------------------------------------------|
E|---------------------------------------------------------|

And then just chords and words ;-)

Verse:
           E               B7              E              E
I won me a mocking bird, a mocking bird, a mocking bird.

           E                   B7                E        E
I won me a mocking bird when i gambled all night long.

E                                    B7                E               E
Mocking bird was a squawking bird, a squawking bird, a squawking bird.

E                                         B7                  E
Mocking bird was a squawking bird, it was squawking all night long.


Chorus:
                E                      E7                      A
Let me tell you i tried for the money,      i just wasnt able, 

A                          Am                          E
Two more drinks and then i slipped under the table.

    B7                  E
She mocked me all night long




It's really easy to play but it sounds really cool.
If any queations, e-mail me.
Tap to rate this tab
# A B C D E F G H I J K L M N O P Q R S T U V W X Y Z