Song name
# A B C D E F G H I J K L M N O P Q R S T U V W X Y Z

Libertines - What Katie Did tab

The Libertines - What Katie Did

I'm pretty sure with the chords, but it's quite impossible to write down the rhythm.


E||-----------------------------------|
B||------------------------------x--x-|
G||------------------------------x--x-|
D||------------------------------x--x-|
A||-----------------------------------|
E||-----------------------------------|


   |--3--|                                  |--3--|  
---9--9--9--9--9--9--9--9--9----9----9---9--9--9--9-|
--10-10-10-10-10-10-10-10-10---10---10--10-10-10-10-|
---9--9--9--9--9--9--9--9--9----9----9---9--9--9--9-|
--11-11-11-11-11-11-11-11-11---11---11--11-11-11-11-|
----------------------------------------------------|
----------------------------------------------------|


   |--3--|                                  |--3--|  
---9--9--9--9--9--9--9--9--9----9----9---9--9--9--9-|
---9--9--9--9--9--9--9--9--9----9----9---9--9--9--9-|
---9--9--9--9--9--9--9--9--9----9----9---9--9--9--9-|
--11-11-11-11-11-11-11-11-11---11---11--11-11-11-11-|
----------------------------------------------------|
----------------------------------------------------|


                                         |--3--|  
--10-10-10-10--9--9--9--9----9----9---9--9--9--9-|
--10-10-10-10-10-10-10-10---10---10--10-10-10-10-|
--11-11-11-11-11-11-11-11---11---11--11-11-11-11-|
--11-11-11-11-11-11-11-11---11---11--11-11-11-11-|
-------------------------------------------------|
-------------------------------------------------|


---9--9--9--9--9--9--9--9----9----9---9-0--|
---9--9--9--9--9--9--9--9----9----9---9-0--|
---9--9--9--9--9--9--9--9----9----9---9-0--|
--11-11-11-11-11-11-11-11---11---11--11----|
-------------------------------------------|
-------------------------------------------|


    "Shoop    shoop...."


   |--3--|                                  |--3--|  
---9--9--9--9--9--9--9--9--9----9----9---9--9--9--9-|
--10-10-10-10-10-10-10-10-10---10---10--10-10-10-10-|
---9--9--9--9--9--9--9--9--9----9----9---9--9--9--9-|
--11-11-11-11-11-11-11-11-11---11---11--11-11-11-11-|
----------------------------------------------------|
----------------------------------------------------|


   |--3--|                                  |--3--|  
---9--9--9--9--9--9--9--9--9----9----9---9--9--9--9-|
---9--9--9--9--9--9--9--9--9----9----9---9--9--9--9-|
---9--9--9--9--9--9--9--9--9----9----9---9--9--9--9-|
--11-11-11-11-11-11-11-11-11---11---11--11-11-11-11-|
----------------------------------------------------|
----------------------------------------------------|


---------------------------------|-----------------------------------|
------10--9s-10--12---10--9------|----------------x--10-10--10-10-10-|
--11-------------------------11--|--9-------------x--10-10--10-10-10-|
---------------------------------|-----12--11-----x--12-12--12-12-12-|
---------------------------------|-----------------------------------|
---------------------------------|-----------------------------------|

========================


------9------9-----9---9----9--9-|------9------9-----9---9----9--9-|
-----10-----10----10--10---10-10-|------9------9-----9---9----9--9-|
------9------9-----9---9----9--9-|------9------9-----9---9----9--9-|
-----11-----11----11--11---11-11-|-----11-----11----11--11---11-11-|
---------------------------------|---------------------------------|
---------------------------------|---------------------------------|


------9------9-----9---9----9--9-|------------------------------------------|
-----10-----10----10--10---10-10-|---------10--------10--------10--------10-|
-----11-----11----11--11---11-11-|------11--------11--------10--------10----|
-----11-----11----11--11---11-11-|--12---------12-------12---------12-------|
---------------------------------|------------------------------------------|
---------------------------------|------------------------------------------|

"What you gonna doooo Katie"

do theese chords: e|  9  | 9  | 9  |       |
                  B|  10 | 9  | 10 | 10 10 |
                  G|  9  | 9  | 11 | 11 10 |
                  D|  11 | 11 | 11 | 12 12 |

with almost the same rhythm as in the beginning.



               "since you said good  bye..."

----------------------------------|---------------------|-----------||
-----10-----10--10----9---8---7---|--7--------7----9----|--5--------||
------9------9---9----8---7---6---|--6--------7----9----|--6--------||
-----11-----11--11---10---9---8---|--8--------9----9----|--7--------||
----------------------------------|-----------9---------|-----------||
----------------------------------|---------------------|-----------||


repeat it, figure it out...hope it helps.


x - dead note
s - legato slide
Tap to rate this tab
 
# A B C D E F G H I J K L M N O P Q R S T U V W X Y Z