Libertines - What Became Of The Likely Lads tab

Band: The Libertines
Song: What Became of the Likely Lads
Album: The Libertines (self-titled)
Tabbed By: Charlie Wood
Tuning: Standard

For some reason there is still no tab for this solo on here so here it is, please rate :)

-----------------------------------------------|
----5--------5---------------------------------|
------7-6-7---7-6-7s9-7-6-----4---4b4b4b4b4----|
--------------------------7-7--7------------7--|
-----------------------------------------------|
-----------------------------------------------|

---------------------------------------------------|
----5------5---------------------------------------|
-----7-6-7--7-6-7s9-7-6h7p6-9-7-6--4--4--4b4b4b4---|
---------------------------------7--7--7---------7-|
---------------------------------------------------|
---------------------------------------------------|

Thats not the way Pete plays it live but im pretty sure thats the way its played on the 
but give me an e-mail or comment if you think otherwise -
peace out x
Tap to rate this tab
 
# A B C D E F G H I J K L M N O P Q R S T U V W X Y Z