Song name
# A B C D E F G H I J K L M N O P Q R S T U V W X Y Z

Libertines - What Became Of The Likely Lads chords

Highlighted       Show chord diagrams
Track 14 - What Became of the Likely Lads?
Tuning   - Standard (EADGBe)
Extras   - Chords in brackets are played between the words they are placed above.
Tabbed By: Nedelko
Any comments, queries or suggestions email me @ candidate_1066@hotmail.com

Chords Used:
G (3,5,5,4,x,x) 
D/A (5,5,7,7,7,x) 
A (5,7,7,6,5,5) 
E (x,7,9,9,9,x) 
Bm (7,9,9,7,7,7) 
D (x,5,7,7,7,x) 
Dm (,x,x,0,2,3,1) 
B7 (7,9,7,8,7,7) 
Eb (,x,6,8,8,8,x) 
C# (x,4,6,6,6,x) 
C (x,3,5,5,5,x) 
B (x,2,4,4,4,x) 
A6/9 (x,0,4,4,2,2) 
A6 (x,0,2,2,2,2)

Verse:
                                 E        
Please don't get me wrong, See I forgive you with a song,
               Bm        (D E)   A                            E
We'll call the Likely lads.  But if it's left to you, I know exactly
                           Bm              D E
What you'd do with all the dreams we had.

Pre Chorus:
    D                       Dm             
Cos blood runs thicker, oh, were as thick as thieves you know.
A                                           D
If it's important to you, it's important to me.
                 Dm          B7
I tried to make you see, but you don't want to know.

Verse:
       A                             E
If you pipe all summer long then get forgiven in a song.
              Bm         (D) E           A           
Well that's a touch my lad. They sold my rights to all my wrongs,
              E                             Bm               D E
But when they needed the new songs. Welcome back they said.

Pre Chorus:
    D                             Dm      
But blood runs blood thicker, oh, were as thick as thieves you know.
A                                               D
That's important to you, then it's important to me. 
                      (Dm)  B7                      E                
I tried to make you see but you don't want to know.

Chorus:
A          E              D         A      E           D
Oh, what became of the likely lads? What became of the dreams we had?
A      E          D     A          E          D
What became of forever? Oh, what became of forever? 
                 A
We'll never know.

Verse:
       A                            E
Please don't get me wrong see I forgive you in a song, we'll call,
              Bm         (D) E           A
The Likely Lads. We all bought the ones, we taught 'em all,
              E                             Bm              D E 
We wrote the songs that filled the dreams we had.

Pre Chorus:
    D                             Dm
But blood runs blood thicker, oh, were as thick as thieves you know.
A                                               D
That's important to you, then it's important to me. 
                      (Dm)  B7                     E
I tried to make you see but you don't want to know.

Chorus:
A          E              D         A      E           D
Oh, what became of the likely lads? What became of the dreams we had?
A      E          D     A          E          D
What became of forever? Oh, what became of forever? 
                 A
We'll never know.
                 A
We'll never know.

-----------------------------------------------------------------------------------------
Lead Parts
-----------------------------------------------------------------------------------------

Elec. Gtr 1 Intro
e|------------------------------------------------------------------|
B|------7---------------------------------------------------7-------|
G|-4/7--7-----6----6--6--------------6-----------------4/7--7-------|
D|-5/7--7--5--7----7--7--7--7--------7--7--5--7--7--7--5/7--7--5--7-|
A|-5/5--5--5--7----7--7--7--7--7--7--7--7--7--7--7--7--5/5--5--5--7-|
E|-3/5--5--5--5----5--5--------5--5--5--5--5--5--5--5--3/5--5--5--5-|

e|------------------------------------------------------------------|
B|---------------------------------------------7--------------------|
G|---6--6--------------6---------------6--4/7--7-----6--------------|
D|---7--7--7--7--------7--7--5---7--5--7--5/7--7--5--7--------------|
A|---7--7--7--7--7--7--7--7--7---7--7--7--5/5--5--5--7--------------|
E|---5--5--------5--5--5--5--5---5--5--5--3/5--5--5--5--------------|

Little Riff:
e|-8--7--5--5--8--7--5--8--7--5-------------------------------------|
B|-8--7--5--5--8--7--5--8--7--5-------------------------------------|
G|------------------------------------------------------------------|
D|------------------------------------------------------------------|
A|------------------------------------------------------------------|
E|------------------------------------------------------------------|

Gtr 1 Solo:
e|------------------------------------------------------------------|
B|-3/5\3-2-3-3/5\3-2-3-3/5------3-2---------------------------------|
G|----------------------------------2------2-4p2--4b--4b--4b-4-2-2--|
D|------------------------------------------------------------------|
A|------------------------------------------------------------------|
E|------------------------------------------------------------------|

Gtr 2 Plays this at the same time as gtr 1 plays that above,
But stops after this bar and carries on playing chords.
e|------------------------------------------------------------------|
B|-5-3-2-3-5--3-2-0--0--0-2-2h3-2-0--0-2-3-3-3/5-3-2-0--------------|
G|-------------------------------------------------0-0--------------|
D|------------------------------------------------------------------|
A|------------------------------------------------------------------|
E|------------------------------------------------------------------|

Gtr 1 (contd.)
   A                   E                 Bm           D
e|------------------------------------------------------------------|
B|-3/5\3-2-3-3/5\3-2-3-3/5--3--2h3p2-5-3-2--------------------------|
G|-----------------------------------------2-4--2-4-4-4B-4B-4B-4-2--|
D|------------------------------------------------------------------|
A|------------------------------------------------------------------|
E|------------------------------------------------------------------|

Outro
e|------------------------------------------------------------------|
B|---5-3-2-3-5-3--2-----5--3--2----3--5--3--2--3--2-----2--2--------|
G|-2-------------------------------------------------4--2----2------|
D|------------------------------------------------------------------|
A|------------------------------------------------------------------|
E|------------------------------------------------------------------|
Tap to rate this tab
# A B C D E F G H I J K L M N O P Q R S T U V W X Y Z