Song name
# A B C D E F G H I J K L M N O P Q R S T U V W X Y Z

Libertines - Time For Heroes tab

Time for Heroes - The Libertines

i find it pretty ridiculous that its ten years since this song was released no-one's put 
a decent version of the solo up yet, so here you go.. rate and enjoy..

   D         F#         Bm          G
e|----------------------------------5-------5-----------|
B|----7-5-7------7-5-7-----7-5-7-7--7b8-7b8-7b8-7b8-7-5-|
G|-7---------6----------4-------------------------------|
D|------------------------------------------------------|
A|------------------------------------------------------|
E|------------------------------------------------------|

   D         F#          Bm          G
e|-----------------------------------5-------5----------|
B|----7-5-7------7-5-7----------5-7--7b8-7b8-7b8--7-5---|
G|-7---------6------------44-77-------------------------|
D|------------------------------------------------------|
A|------------------------------------------------------|
E|------------------------------------------------------|

   D                    F#                  Bm                  G
e|------------------------------------------7-------------------------------------------|
B|----------------------7------(7)----------7--10---7----(7)----7----7----7----7----7-7-|
G|---------7-------7----9b11r9--7------7------------11r9--7-----9b11-9b11-9b11-9b11-9-7-|
D|-----7-9-------9---9-------------7h9---9-------------------9--------------------------|
A|-7/9----------------------------------------------------------------------------------|
E|--------------------------------------------------------------------------------------|

   D                  F#                   G
e|--------------------------------------------------------------------|
B|-------------------------------------------7------7------7------7---|
G|----7---7-------7--------------------------9b11r9-9b11r9-9b11r9-7---|
D|-7h9-7h9-7h9r7h9--(9)---------------------------------------------9-|
A|----------------------9-8-7/5----5---5------------------------------|
E|-----------------------------5h7---7---7----------------------------|

   A                 D       F#      Bm      G
e|---------------------------5-------5-------5---5---5----5-|
B|-------------------7b8-7---7b8-7---7b8-7---7b8-7b8-7b8--7-|
G|-------------7-9------------------------------------------| Guitar 1
D|---------7-9----------------------------------------------|
A|-----7-9--------------------------------------------------|
E|-7-10-----------------------------------------------------|
 |
 |
 | A
e|-------------------|
B|--------7-7b8-7----|
G|-7--9--------------| Guitar 2
D|-------------------|
A|-------------------|
E|-------------------|


READ CAREFULLY:
the last line almost DEFINITELY will sound out of time unless you play along with the 
song and listen VERY CAREFULLY to it first
i've tabbed the second guitar for the first part of the last line as it is difficult to 
distinguish between the two, you can play either one if you are doing it by yourself

P.S. i didn't bother tabbing the rhythm, theres other tabs that have it anyway, but the 
lead should be pretty holeproof.. listen to the song for rhythm and that

/  - slide
h  - hammer on
b  - bend
r  - release
() - indicates note that doesn't have to be played but sounds good
Tap to rate this tab
# A B C D E F G H I J K L M N O P Q R S T U V W X Y Z