Song name
# A B C D E F G H I J K L M N O P Q R S T U V W X Y Z

Libertines - Mocking Bird tab

-------------------------------------------------------------------------------
                             MOCKINGBIRD - The Libertines
-------------------------------------------------------------------------------
Tabbed by: jsayer94
E-mail:

Tuning: EADGBE (standard)


************************************

| /   slide up
| \   slide down
| h   hammer-on
| p   pull-off
| ~   vibrato

************************************

Intro Riff:

E|--2h4--2--0----------------------------|
B|-------------3h5--5--3h5--3h5--5--3h5--|
G|---------------------------------------|
D|---------------------------------------|
A|---------------------------------------|
E|---------------------------------------|

x2

Then:

E|----------------|
B|----------------|
G|--2h3--2--0-----|
D|-------------2--|
A|----------------|
E|----------------|


Then:

           E               B7              E              E
I won me a mocking bird, a mocking bird, a mocking bird.

           E                   B7                E        E
I won me a mocking bird when i gambled all night long.

E                                    B7                E               E
Mocking bird was a squawking bird, a squawking bird, a squawking bird.

E                                         B7                  E
Mocking bird was a squawking bird, it was squawking all night long.


Chorus:
                E                      E7                      A
Let me tell you i tried for the money,      i just wasnt able,

A                          Am                          E
Two more drinks and then i slipped under the table.

    B7                  E
She mocked me all night long

Chords:

  B7                    All the rest open chords. Note, playing playing E hammer on in 
this fashion:

E|--2-------|                                                                     E|--x-0--|
B|--0-------|                                                                     B|--x-0--|
G|--1-------|                                                                     G|--0h2--|
D|--2-------|                                                                     D|--0h1--|
A|--2-------|                                                                     A|--0h2--|
E|--0-------|                                                                     E|--x-0--|
Tap to rate this tab
 
# A B C D E F G H I J K L M N O P Q R S T U V W X Y Z