Song name
# A B C D E F G H I J K L M N O P Q R S T U V W X Y Z

Libertines - Begging tab

-------------------------------------------------------------------------------
			     BEGGING - The Libertines
-------------------------------------------------------------------------------
Tabbed by: Brotherhood of the squirrel
Email: brotherhoodofthesquirrel@hotmail.co.uk

Tuning: Standard

  Intro
e|-------------------------------------------------------------------------------|
B|-4-4-4-4-2--0---0-0-0-0-0-2--0------4-4-4-4-2-0--2---2---2-2-2-2-2-2-2-2-2-2-2-|
G|-4-4-4-4-4--4-----4-4-4-4------2----4-4-4-4-4-4--2---2---2-2-2-2-2-2-2-2-2-2-2-|
D|-------------------------------------------------2---2---2-2-2-2-2-2-2-2-2-2-2-|
A|-------------------------------------------------0---0---0-0-0-0-0-0-0-0-0-0-0-|
E|-------------------------------------------------------------------------------|

  Verse
e|-----------------------------------------------------3--3-------3---3-----2-----|
B|--4-4-4-4---2-2-----4-4-4-4---2-2-----4-4-4-4---2-2--3----3-----3---3--4---2----|
G|--4-4-4-4---2-2-----4-4-4-4---2-2-----4-4-4-4---2-2--4------4---4---4--4----4---|
D|--4-4-4-4---2-2-----4-4-4-4---2-2-----4-4-4-4---2-2--5----------5---5--4--------|
A|--2-2-2-2---0-0-----2-2-2-2---0-0-----2-2-2-2---0-0--5----------5---5--2--------|
E|-----------------------------------------------------3--------3-3---3-----------|

  All animals we are round, the bench in the park Your sisters in the dark           
Watery pinned eyes, my soul has gone a little cold.

e|-----------------------------------------------------3--3-------3---3------2----|
B|--4-4-4-4---2-2-----4-4-4-4---2-2-----4-4-4-4---2-2--3----3-----3---3--4--------|
G|--4-4-4-4---2-2-----4-4-4-4---2-2-----4-4-4-4---2-2--4------4---4---4--4--4-4---|
D|--4-4-4-4---2-2-----4-4-4-4---2-2-----4-4-4-4---2-2--5----------5---5--4--------|
A|--2-2-2-2---0-0-----2-2-2-2---0-0-----2-2-2-2---0-0--5----------5---5--2--------|
E|-----------------------------------------------------3--------3-3---3-----------|

  Well maybe maybe next year, if it isn't too dear we'll get ourselves some good time 
remember when you pay, you'll pay, in many many ways

e|---------------------------------------------------------------------------|
B|---------------------------------------------------------------------------|
G|----------------------------------------------3-3-4-3----------------------|
D|-----2------2-------2-------2-------4-------4-4-4-5-4----------------------|
A|---2------2-------2-------2-------4-------4---4-4-5-4----------------------|
E|-0----0-0-----0-0-----0-0-----0-2-----2-2-----2-2-3-2----------------------|

 Now he's crossing the road, Picking up his daily      sport

  Chorus
e|-----2--4--4-------5-5-5-5-5-5-5-5-2-2-2-2-2-2-2-2-------------------------|
B|--4--2--4------4---5-5-5-5-5-5-5-5-2-2-2-2-2-2-2-2-------------------------|
G|--4--3--5--------5-6-6-6-6-6-6-6-6-3-3-3-3-3-3-3-3-------------------------|
D|--4--4--6----------7-7-7-7-7-7-7-7-4-4-4-4-4-4-4-4-------------------------|
A|--2--4--6----------7-7-7-7-7-7-7-7-4-4-4-4-4-4-4-4-------------------------|
E|-----2--4----------5-5-5-5-5-5-5-5-2-2-2-2-2-2-2-2-------------------------|

     Oh now they're begging you, they're begging you, what can you do

e|-----2--4--4-------5-5-5-5-5-5-5-5-2-2-2-2-2-2-2-2-------------------------|
B|--4--2--4------4---5-5-5-5-5-5-5-5-2-2-2-2-2-2-2-2--4----------------------|
G|--4--3--5--------5-6-6-6-6-6-6-6-6-3-3-3-3-3-3-3-3--4----------------------|
D|--4--4--6----------7-7-7-7-7-7-7-7-4-4-4-4-4-4-4-4--4----------------------|
A|--2--4--6----------7-7-7-7-7-7-7-7-4-4-4-4-4-4-4-4--2----------------------|
E|-----2--4----------5-5-5-5-5-5-5-5-2-2-2-2-2-2-2-2-------------------------|

      Oh lord they're begging you, Your friends begging you what will you do

Verse
e|-----------------------------------------------------3--3-------3---3-----2-----|
B|--4-4-4-4---2-2-----4-4-4-4---2-2-----4-4-4-4---2-2--3----3-----3---3--4---2----|
G|--4-4-4-4---2-2-----4-4-4-4---2-2-----4-4-4-4---2-2--4------4---4---4--4----4---|
D|--4-4-4-4---2-2-----4-4-4-4---2-2-----4-4-4-4---2-2--5----------5---5--4--------|
A|--2-2-2-2---0-0-----2-2-2-2---0-0-----2-2-2-2---0-0--5----------5---5--2--------|
E|-----------------------------------------------------3--------3-3---3-----------|

   and have you seen the singer she said " he's a dead ringer for a fella that i used to 
"oh hell" she cried "oh hell, oh no it's a funny way to go"

e|---------------------------------------------------------------------------|
B|---------------------------------------------------------------------------|
G|----------------------------------------------3-3-4-3----------------------|
D|-----2------2-------2-------2-------4-------4-4-4-5-4----------------------|
A|---2------2-------2-------2-------4-------4---4-4-5-4----------------------|
E|-0----0-0-----0-0-----0-0-----0-2-----2-2-----2-2-3-2----------------------|

 Now he's crossing the road, Picking up his daily      sport

 Chorus
e|-----2--4--4-------5-5-5-5-5-5-5-5-2-2-2-2-2-2-2-2-------------------------|
B|--4--2--4------4---5-5-5-5-5-5-5-5-2-2-2-2-2-2-2-2-------------------------|
G|--4--3--5--------5-6-6-6-6-6-6-6-6-3-3-3-3-3-3-3-3-------------------------|
D|--4--4--6----------7-7-7-7-7-7-7-7-4-4-4-4-4-4-4-4-------------------------|
A|--2--4--6----------7-7-7-7-7-7-7-7-4-4-4-4-4-4-4-4-------------------------|
E|-----2--4----------5-5-5-5-5-5-5-5-2-2-2-2-2-2-2-2-------------------------|

     Oh now they're begging you, they're begging you, what can you do

e|-----2--4--4-------5-5-5-5-5-5-5-5-2-2-2-2-2-2-2-2-2-3-2-3--0--0-0-1-0-------------|
B|--4--2--4------4---5-5-5-5-5-5-5-5-2-2-2-2-2-2-2-2-2-3-2-3--0--0-0-1-0-------------|
G|--4--3--5--------5-6-6-6-6-6-6-6-6-3-3-3-3-3-3-3-3-3-4-3-4--0--0-0-2-0-------------|
D|--4--4--6----------7-7-7-7-7-7-7-7-4-4-4-4-4-4-4-4-4-5-4-5--2--2-2-3-2-0-----------|
A|--2--4--6----------7-7-7-7-7-7-7-7-4-4-4-4-4-4-4-4-4-5-4-5--2--2-2-3-2-0-----------|
E|-----2--4----------5-5-5-5-5-5-5-5-2-2-2-2-2-2-2-2-2-3-2-3--0--0-0-1-0-0-----------|

      Oh lord they're begging you, Your friends begging you what will you do

  Middle 8 (the messy bit) not entirely accurate but good enough. Just make it up as you 
this is a rough outline
e|------------------------------------------5--5---5--/-/-/-/-17--17---------|
B|--------------------------5-/-7---9-\-7---5--5---5--/-/-/-/-17--17---------|
G|-2------------------------5-/-7---9-\-7---7b-7b--7b-/-/-/-/-19b-19b--------|
D|-2----------------2--------------------------------------------------------|
A|-0-------0--3-2-3---0------------------------------------------------------|
E|---------------------------------------------------------------------------|

e|-17-/-/-/-\-\-\-\-5--5---------------------------------5-------------------|
B|-17-/-/-/-\-\-\-\-5--5---------------------------------5-------------------|
G|-19b--------------7b-7b--5-/-7--9-\-7---5-/-7--9-\-7---5-/-7--9-\-7--------|
D|-------------------------------------------------------7-------------------|
A|---------------------------------------------------------------------------|
E|---------------------------------------------------------------------------|

e|----------------------------------------------|
B|-12--10----10--10--------------------------4--|
G|-12--10----10--10----0-0-2-0-----3-3-4-3---4--|
D|-12--10----10--10----2-2-3-2-0---4-4-5-4---4--|
A|-10--8-----8---8-----2-2-3-2-0---4-4-5-4---2--|
E|---------------------0-0-1-0-0---2-2-3-2-0----|


| /  slide up
| \  slide down
| h  hammer-on
| p  pull-off
| ~  vibrato
| +  harmonic
| x  Mute note
===============================================================================
Tap to rate this tab
# A B C D E F G H I J K L M N O P Q R S T U V W X Y Z