Song name
# A B C D E F G H I J K L M N O P Q R S T U V W X Y Z

Libertines - Death On The Stairs tab

rythm play the notes about the


STRUCTURE

Intro
Verse 
Verse 
Chorus
Verse 
Verse
Chorus
Solo

Intro

E-8-9---6----6---|
B-8-8---6----6---|
G-8-8---7----7---|
D-------8----8---|    x1
A-------8----8---|
E-------6--9-6---|

E-------------------|
B-------4-----------|
G-7-5-----5B77R5-3--|
D-7-5---------------|  x1
A-------------------|
E-------------------|

E---------------------|
B---------4-----------|
G-77-55-----5B77R5-3--|
D-77-55---------------|     X6 
A---------------------|
E---------------------|

At the end of the sixth one G--5b7r5--



VERSE (same for all)

 A#
 From way far across the sea
E----------------------------|
B----------------------------|
G-5p4-7--5p4-7--5p4-7-5-7-5--|
D----------------------------|
A----------------------------|
E----------------------------|

 F
 Came an Eritraen maiden she
E----------------------------|
B----------------------------|
G-5p4-7--5p4-7--5p4-7-5-7-5--|
D----------------------------|
A----------------------------|
E----------------------------|

 G
 Had a one track mind and eyes for me
E----------------------------|
B----------------------------|
G-5p4-7--5p4-7--5p4-7-5-7-5--|
D----------------------------|
A----------------------------|
E----------------------------|

 G
 Half blinded in the war
E----------------------------|
B----------------------------|
G-5p4-7--5p4-7--5p4-7-5-7-5--|
D----------------------------|
A----------------------------|
E----------------------------|

 C
 With a pale young Anglican
E---------------------|
B---------4-----------|
G-77-55-----5B77R5-3--|
D---------------------|     
A---------------------|
E---------------------|

 F
 Who said he'd help her all he can
E---------------------|
B---------4-----------|
G-7-7-5-5---5B77R5-3--|
D---------------------|     
A---------------------|
E---------------------|

 A#                                      D#
 Showed her Jesus and his little un-holy friend
E---------------------|---------------------|
B---------4-----------|---------------------|
G-7-7-5-5---5B77R5-3--|-7-7-5-5---5B77R5-3--|
D---------------------|---------------------|     
A---------------------|---------------------|
E---------------------|---------------------|

 C
 She had no notion to please him
E---------------------|
B---------4-----------|
G-7-7-5-5---5B77R5-3--|
D---------------------|     
A---------------------|
E---------------------|

 F                                     A#
 Just say 'ta-ra' and leave him behind
E---------------------|---------------------|
B---------4-----------|---------------------|
G-7-7-5-5---5B77R5-3--|-7-7-5-5---5B77R5-3--|
D---------------------|---------------------|     
A---------------------|---------------------|
E---------------------|---------------------|




CHORUS
 A#
 Please kill me
E----------------|
B-3h4-6--4-3-----|
G----------------|
D----------------|
A----------------|
E----------------|

E----------------|
B----------------|
G----------------|
D-0h1-3---1-0----|
A----------------|
E----------------|

 D# 
 Oh no don't kill me
E----------------|
B-3h4-6--4-3-----|
G----------------|
D----------------|
A----------------|
E----------------|

E----------------|
B----------------|
G----------------|
D-0h1-3---1-0----|
A----------------|
E----------------|

 C
 Don't bring that ghost round to my door
E--------------------------------|
B-3h4p3-6--4----------3h4p4-6----|
G--------------------------------|
D--------------------------------|
A--------------------------------|
E--------------------------------|

E--------------------------------|
B--------------------------------|
G--------------------------------|
D-0h1p0-3-------------1-0h1p0-3--|
A--------------------------------|
E--------------------------------|

 F
 I don't wanna see them anymore
E----------------------------|
B-6p3-6p3-6p3-6p3-6/8-6-4-3--|
G----------------------------|
D----------------------------|
A----------------------------|
E----------------------------|

E----------------------------|
B----------------------------|
G----------------------------|
D-3p0-3p0-3p0-3p0-3/5-3-1-0--|
A----------------------------|
E----------------------------|

 A#
 Please kill me 
E----------------|
B-3h4-6--4-3-----|
G----------------|
D----------------|
A----------------|
E----------------|

E----------------|
B----------------|
G----------------|
D-0h1-3---1-0----|
A----------------|
E----------------|

 D#
 Oh no don't kill me
E----------------|
B-3h4-6--4-3-----|
G----------------|
D----------------|
A----------------|
E----------------|


E----------------|
B----------------|
G----------------|
D-0h1-3---1-0----|
A----------------|
E----------------|
 
 C
 Don't bang on about yesterday
E--------------------------------|
B-3h4p3-6--4----------3h4p4-6----|
G--------------------------------|
D--------------------------------|
A--------------------------------|
E--------------------------------|

E--------------------------------|
B--------------------------------|
G--------------------------------|
D-0h1p0-3-------------1-0h1p0-3--|
A--------------------------------|
E--------------------------------|

 F
 You know I wouldn't know about that any way oh no
E----------------------------|
B-6p3-6p3-6p3-6p3-6/8-6-4-3--|
G----------------------------|
D----------------------------|
A----------------------------|
E----------------------------|

E----------------------------|
B----------------------------|
G----------------------------|
D-3p0-3p0-3p0-3p0-3/5-3-1-0--|
A----------------------------|
E----------------------------|





SOLO (both guitars)
E-13-------------------------------------------------------|
B-15----15-----15----15----15-------15---------------------|
G-15----17b19--17b19-17b19-17b19r17-15---------------------|
D-15--------------------------------------------15-16-17---|
A-13-----------------------------------15-16-17------------|
E----------------------------------------------------------|

E-18-18-18-18-17-17-17-17-15-15-15------------------------------------|
B---------------------------------18-18-18-18-16-16-16-16-15-15-15-15-|
G---------------------------------------------------------------------|
D---------------------------------------------------------------------|
A---------------------------------------------------------------------|
E---------------------------------------------------------------------|

E---------------------------------------------------------|
B---------------------------------------------------------|
G--17b19-19r17b19-17b19r17b19r17-17-15----15----15--15----|
D--------------------------------------17----17---17--17--|
A---------------------------------------------------------|
E---------------------------------------------------------|

E-----------------------|
B------------16-16/18---|
G-15-15-17-17--------15-|
D-----------------------|  X1
A-----------------------|
E-----------------------|

E-----------------------------|
B------------16---------------|
G-15-15-17-17--17b19-19r17-15-|
D-----------------------------|  X5
A-----------------------------|
E-----------------------------|

E-----------------------------------------------------------------|
B-----------------------------------------------------------------|
G-17b19-19r17-17b19-17b19r17b19r17b19r17-15--------15-----15------|
D------------------------------------------------15--17r15--17p15-|
A-------------------------------------------15h17-----------------|
E-----------------------------------------------------------------|

Outro
  C                  F                   A#
  He got nothing, oh he got nothing at all
E--------------------------------------------|
B--------------------------------------------|
G-15-----15-----15-----15-----15-----15------|
D---17r15--17p15--17r15--17p15--17r15--17p15-|
A--------------------------------------------|
E--------------------------------------------|

E----------------------------------|
B----------------------------------|
G-17b19r17-15-17-15-17-15-17-15-15-|
D-------------------------------17-|
A----------------------------------|
E----------------------------------|
Tap to rate this tab
# A B C D E F G H I J K L M N O P Q R S T U V W X Y Z