Song name
# A B C D E F G H I J K L M N O P Q R S T U V W X Y Z

Libertines - Delaney tab

----------------------------------------------------------------------------
			     The Delaney - The Libertines
----------------------------------------------------------------------------
Tabbed by: sean
Email: mushroomheady@hotmail.com

Tuning: Standard

It took me ages to figure all this out. i tabbed it from the normal version but alot of 
they play varies when they play it live...

Intro (0:00 - 0:05)
e|---------------1-1-x--x---------------1-x-x---------------1----|
B|--3-3/5--5-5-5-1-1-x--x--3-3/5--5-5-5-1-x-x--3-3/5--5-5-5-1----|
G|--3-3/5--5-5-5-2-2-x--x--3-3/5--5-5-5-2-x-x--3-3/5--5-5-5-2----|
D|--3-3/5--5-5-5-3-3-x--x--3-3/5--5-5-5-3-x-x--3-3/5--5-5-5-3----|
A|--1-1/3--3-3-3-3-3-x--x--1-1/3--3-3-3-3-x-x--1-1/3--3-3-3-3----|
E|---------------1-1-x--x---------------1-x-x---------------1----|
This parts played by a second guitar (Pete) as a backing to Riff 1 later in the song

Riff 1 (0:05 - 0:15)
e|-------------------------------------------------------------------|
B|-------------------------------------------------------------------|
G|--10-10--12b~-------r-12-10-----12b-12b-12b-------10-------10------|
D|----------------------------12--------------10h12----10h12---------|
A|-------------------------------------------------------------------|
E|-------------------------------------------------------------------|

e|-------------------------------------------------------------------|
B|-------------------------------------------------------------------|
G|--12b-12-12b-12-12b-12-10-----------10-------10--12b-12-10---------|
D|--------------------------12--10h12----10h12---------------12--10--|
A|-------------------------------------------------------------------|
E|-------------------------------------------------------------------|
This is just a rough guide to the solo-type riff because like a said it varies everytime 
plays it! also it varies slightly after each verse.

Riff 2 (0:15 - 0:23)
e|--------10-8-6-5----------8-6-5----------10-8-6-5----------8-6-5---|
B|-----10----------6--------------6-----10----------6------------5---|
G|--10---------------7--5-5----------10---------------7--5-5-----6---|
D|---------------------------------------------------------------7---|
A|---------------------------------------------------------------7---|
E|---------------------------------------------------------------5---|
You can add in a few other notes to it but this is basically what it is.

Verse (0:23 - 0:38)
F Dm C Dm F Dm C Dm C Dm C

Fill 1 (0:38 - 0:39)
e|--13-13-13-10---------|
B|--------------13-10---|
G|----------------------|
D|----------------------|
A|----------------------|
E|----------------------|

Riff 1 (0:39 - 0:48)

Riff 2 (0:48 - 0:57)

Verse (0:57 - 1:13)

Riff 1 (1:13- 1:22)

Interlude (1:22 - 44)
F C Dm A# A#m F C Dm A# A#m C

Fill 2 (1:41 - 1:51)
e|--5--5/65/6/865----531/3/531/3/5--5--5-5-5-5-5/653/51--------------|
B|-------------------------------------------------------------------|
G|-------------------------------------------------------------------|
D|-------------------------------------------------------------------|
A|-------------------------------------------------------------------|
E|-------------------------------------------------------------------|

Solo (2:01 - 2:21)
e|------------------------------------------------------------------------|
B|--------------------------------------------------------------------10--|
G|-14-12-10---12-12b--12-12b--12-12b--12-10-12-12b-12-10----10----10--12b-|
D|-------------------------------------------------------12----12---------|
A|------------------------------------------------------------------------|
E|------------------------------------------------------------------------|

e|------------------------------------------------------------------------|
B|------------------------------------------------------------------------|
G|--12-10--12b~------12r--12-10-----10---10-----------------12b--12-10----|
D|-------------------------------12---12-------------10h12----------------|
A|------------------------------------------10h11h12----------------------|
E|------------------------------------------------------------------------|

Outro (2:21 - 2:40)
e|--5-x-3-3-x-1-1-0-xx-5-x-3-3-x-1-1-0-xx-5-x-3-3-x-1-1-0-xx-1-3-5-3-1/5--------|
B|--6-x-5-5-x-3-3-1-xx-6-x-5-5-x-3-3-1-xx-6-x-5-5-x-3-3-1-xx-3-5-6-5-3/6--------|
G|------------------------------------------------------------------------------|
D|------------------------------------------------------------------------------|
A|------------------------------------------------------------------------------|
E|------------------------------------------------------------------------------|

Riff 3
e|--5-x-3-3-x-1-1-0-xx--|
B|--6-x-5-5-x-3-3-1-xx--|
G|----------------------|
D|----------------------|
A|----------------------|
E|----------------------|
This riff is used every now and again as well.

And there you have it - a great song by an amazing band.
Tap to rate this tab
# A B C D E F G H I J K L M N O P Q R S T U V W X Y Z