Song name
# A B C D E F G H I J K L M N O P Q R S T U V W X Y Z

Libertines - Tell The King tab

Song: Tell the King
Album: Up the Bracket
Artist: The Libertines
Tabbed by: Eby (carl_valensi@hotmail.com)

This another great song from the 'Up the Bracket' album.
i don't want to plagarise; so you can refer to other tabs available from other sites 
but some parts from the other tabs are missing especially the part where Carl/ Pete go: 
"Tell it to your king, tell him everything you know,"

This is my first tab and it sounds about the same to me.
enjoy!


Pete:

Even now there's something to be proud about,
You come up the hard way,
And they remind you everyday,  
You're nothing.

Oh my words in your mouth are mumbled all about,
You're like a journalist,
How you can cut and paste and twist;
You're.... (continued below)

..awful........ 
e|------------------------------------------|
B|------------------------------------------|   (both guitars)
G|12--12-11--11-9--9-7--7-5--5-4--4-2--2-0--|
D|------------------------------------------|
A|------------------------------------------|
E|------------------------------------------|

then:
                               tell it..
                                      king.. 
                                            tell him..
e|10(4x)--9(4x)--7(4x)--5(4x)--3(4x)--2(4x)----------------|         
B|-------------------------------------------8-10-8---8-9-8|   
G|--------------------------------------------------11-----|    
D|---------------------------------------------------------|    
A|---------------------------------------------------------|        
E|---------------------------------------------------------|
(Tell it to your king, tell him everything you know)



Carl:

If you were late you mustn't dare complain
And you wont like this at all
There's nothing to break your.. (continued)

..fall....
e|------------------------------------------|
B|------------------------------------------|   (both guitars)
G|12--12-11--11-9--9-7--7-5--5-4--4-2--2-0--|
D|------------------------------------------|
A|------------------------------------------|
E|------------------------------------------|

then:
                               tell it..
                                      king.. 
                                            tell him..
e|10(4x)--9(4x)--7(4x)--5(4x)--3(4x)--2(4x)----------------|         
B|-------------------------------------------8-10-8---8-9-8|   
G|--------------------------------------------------11-----|    
D|---------------------------------------------------------|    
A|---------------------------------------------------------|        
E|---------------------------------------------------------|
(Tell it to your king, tell him everything you know)

That's it!
You can combine this tab with the others for a full song
Tap to rate this tab
# A B C D E F G H I J K L M N O P Q R S T U V W X Y Z