Song name
# A B C D E F G H I J K L M N O P Q R S T U V W X Y Z

Libertines - Music When The Lights Go Out tab

-------------------------------------------------------------------------------
			    MUSIC WHEN THE LIGHTS GO OUT - The Libertines
-------------------------------------------------------------------------------
Tabbed by: Sam Allen (possibly the best tabber ever)
Email: allenscool@hotmail.co.uk

Tuning: STANDARD

Listen To Song For The Rythm

GUITAR ONE (ACOUSTIC)
   C  Em/B                Am     C/G           Dm7
e|-0--0-0-0-0-0-0-0-0-0-|----0---------------|----1-1-1-----------|
B|-1--1-1-0-0-0-0-0-0-0-|----1-1-1-----------|----1-1-1-1-------0-|
G|-0--0-0-0-0-0-0-0-0-0-|-2--2-2-0-0-0-----0-|-2--2-2-0-0-2-0h2-0-|
D|-2--2-2-2-2-2-2-2-2-0-|-2--2-2-0-0-2-0h2-0-|-0----------------0-|
A|-3--------------------|-0------------------|--------------------|
E|----------------------|--------------------|--------------------|
   
   G
e|----3-3-3-3---------||
B|----3-3-3-3---------||
G|----0-0-0-0---------||    
D|------0-0-0-------0-||
A|--------------0h2-0-||
E|-3----------3-------||

Play that a whole lot of times untill chorus where you play 

Barre Chords

   |F C|F C|F Dm7| G |F C|F C|F Dm7| G | G |

Then back to verse.

Now Then.
 
GUITAR TWO (ELECTRIC)

clean tone
e|--------------|------------------|----------------|-------------|
B|--------------|------------------|----------------|-------------|
G|--------------|------------------|----------------|-------------|
D|-2h3-4/5-5/14-|-2h3-4/5-5/14--14-|-2-3-4/5/14--14-|-12----10--9-|
A|--------------|------------------|----------------|-------------|
E|--------------|------------------|----------------|-------------|

Another verse part.

e|-----------------|-----------|
B|-----------------|-----------|
G|-----------------|-----------|
D|---------0-2-3-5-|-5----3----|
A|---0-2-3---------|-----------|
E|-3---------------|-----------|
 
CHORUS
light distorsion.
e|--------------------|-----------------------8-|----8---------11/13-131313-14-|
B|-----------8-8-8----|--------8----8----8------|-11-----------------131313-14-|
G|-----------8-8-8----|-10^-10-8----8----8------|------11-10-8-----------------|
D|------8-10-------10-|----------10---10---10---|------------------------------|
A|-8/10---------------|-------------------------|------------------------------|
E|--------------------|-------------------------|------------------------------|

e|-15----15--14-||
B|-15----15--14-||
G|--------------||
D|--------------||
A|--------------||
E|--------------||

I'm afraid that's it for now.
But I may do the album later.
Though I can't seemingly figure out the last bit of what became of the likely lads.
because the tabs of it are wrong because they miss loads out.

| ^  full bend
| /  slide up
| \  slide down
| h  hammer-on
| p  pull-off
| ~  vibrato
| +  harmonic
| x  Mute note
===============================================================================
Tap to rate this tab
 
# A B C D E F G H I J K L M N O P Q R S T U V W X Y Z