Song name
# A B C D E F G H I J K L M N O P Q R S T U V W X Y Z

Libertines - Narcissist tab

Alright, here's Narcissist from The Libertines this is 99% right ^^

Tabbed By: TotalGuitarist - Maik
Tuning: Standard, EADGBE

Good Luck :)

Intro:
 E----------------------------------------------|
 B----------------------------------------------|
 G-9-10-9-10-9-10-10-9-10--5--5--3--5--5--5--3--|
 D-------------------------5--5--3--5--5--5--3--|
 A-------------------------3--3--1--3--3--3--1--|
 E----------------------------------------------|

Then..

E---------------------------------------------------------------|
B---------------------------------------------------------7b-777|
G-----------------------3-5-3-5-3-5-----------------------7b-777|
D------3-5-3-5-5-3----5--------------5------5-7-5-7-5-7---------|
A----5-------------5-3--------------------7---------------------|
E--3------------------------------------5-----------------------|


Verse:

E----------------|
B----------------|
G------5-------7-|
D--5---5---7---7-|
A--5---3---7---5-|
E--3-------5-----|


Chorus:
E-------------------------------------|
B-------------------------------------|
G----8--------------------------------|
D-5---8---8--5--5--3--5---------------|
A-5---6---8--5--5--3--5---------------|
E-3-------6--3--3--1--3---------------| x2

Bridge:

 E--------------------------------------------|
 B-------------------------------------7b-777-|
 G---------------5-3-------------------7b-777-|
 D-----5-3-----5-----5-----7-5----------------|
 A---5-----5-3-----------7-----7--------------|
 E-3-------------------5----------------------|
Tap to rate this tab
# A B C D E F G H I J K L M N O P Q R S T U V W X Y Z