Song name
# A B C D E F G H I J K L M N O P Q R S T U V W X Y Z

Libertines - Ha Ha Wall tab

well hello my fellow guitarist! here's a little tune i love by the libertines but after 
on here i could'nt help but notice the poor efforts. so lets put the real one on!!

just to get things started here a little bit you can use as intro or during song if ya please.

      [-----------------]
      [------3-5-2-2----]
      [-----4-4--2--2---]    play a couple of times.
      [-----------------]
      [-----------------]
      [-----------------]

so heres the full song enjoy!

guitar 2
  [---------------]----------0-----]---0------------]
  [---------------]----------0-----]---0------------]
  [---------------]----------7-----]---7------------]
  [---------------]----------------]----------------]
  [---------------]----------------]----------------]
  [---------------]----------------]----------------]
guitar 1
      [------0-----------0-----]------0----------0--]------0--------0-----]
      [---------0--------0-----]-----------------0--]--------0------0-----]
      [-7--7-------9--9-----6--]---------6--7----6--]-7--7-----9--9----6--]
      [-9--9-------9--9-----7--]---7-----7--9----7--]-9--9-----9--9----7--]
      [------------------------]--------------------]---------------------]
      [------------------------]--------------------]---------------------]

guitar2
  [---------0--0--]--0-----------]-----------0-0--]--0--------------------]
  [---------0--0--]--0-----------]-----------0-0--]--0--------------------]
  [---------7--6--]--7-----------]-----------7-6--]--7--------------------]
  [---------------]--------------]----------------]-----------------------]
  [---------------]--------------]----------------]-----------------------]
  [---------------]--------------]----------------]-----------------------]

guitar1
  [----0----0---0-]------0---------0---]---0----0---0-]------0--------0---]
  [---------0---0-]-------0--------0---]--------0---0-]--------0------0---]
  [------6--7---6-]-7--7-----9--9----6-]-----6--7---6-]-7--7-----9--9---6-]
  [-7----7--7---7-]-9--9-----9--9----7-]-7---7--7---7-]-9--9-----9--9---7-]
  [---------------]--------------------]--------------]-------------------]
  [---------------]--------------------]--------------]-------------------]

guitar2
  [--------0-0----]sr[---0--0---x---0---0--]----0---0---0----]-----------]
  [--------0-0----]te[---0--0---x---0---0--]----0---0---0----]-----------]
  [--------7-6----]ap[---7--7---x---11--6--]----6---7---6----]-----------]
  [---------------]re[---------------------]-----------------]-----------]
  [---------------]ta[---------------------]-----------------]-----------]
  [---------------] t[---------------------]-----------------]-----------]

guitar1
  [----0----0---0-]sr[--0--0----0--0-]--0-0-0--0---0--0-]-0--0-----0---0--]
  [---------0---0-]te[--0--0----0--0-]--0-0-0--0---0--0-]-0--0-----0---0--]
  [------6--7---6-]ap[--7--7----9--6-]--6-6-6--7---6--6-]-7--7-----9---6--]
  [--7---7--7---7-]re[--9--9----0--7-]--0-0-0--0---0--0-]-9--9-----0---7--]
  [---------------]ta[--9--9-------0-]--0-0-0--0---0--0-]-9--9------------]
  [---------------] t[---------------]------------------]-----------------]

  [---0--0--0--0--0--0--0-]-0--0---0--0-]-0--0--0--0---0-0-[-0--0---0---0-]
  [---0--0--0--0--0--0--0-]-0--0---0--0-]-0--0--0--0---0-0-[-0--0---0---0-]
  [---6--6--6--7--7--6--6-]-7--7---9--6-]-6--6--6--7---6-6-[-7--7---9---6-]
  [---0--0--0--0--0--0--0-]-9--9---0--7-]-0--0--0--0---0-0-[-9--9---0---7-]
  [---0--0--0--0--0--0--0-]-9--9------0-]-0--0--0--0---0-0-[-9--9-------0-]
  [-----------------------]-------------]------------------[--------------]

  [--0--0--0--0--0--0--0-]-0--0--0--0-]-0-0--0--0--0---0-0-[-0--0---0---0-]
  [--0--0--0--0--0--0--0-]-0--0--0--0-]-0-0--0--0--0---0-0-[-0--0---0---0-]
  [--6--6--6--7--7--6--6-]-7--7--9--6-]-6-6--6--6--7---6-6-[-7--7---9---6-]
  [--0--0--0--0--0--0--0-]-9--9--0--7-]-7-0--0--0--0---0-0-[-9--9---0---7-]
  [--0--0--0--0--0--0--0-]-9--9-----0-]-0-0--0--0--0---0-0-[-9--9-------0-]
  [----------------------]------------]--------------------[--------------]

  [---0--0--0--0--0--0--0-]-0--0---0--0-]-0--0--0--0---0-0-[-0--0---0---0-]
  [---0--0--0--0--0--0--0-]-0--0---0--0-]-0--0--0--0---0-0-[-0--0---0---0-]
  [---6--6--6--7--7--6--6-]-7--7---9--6-]-6--6--6--7---6-6-[-7--7---9---6-]
  [---0--0--0--0--0--0--0-]-9--9---0--7-]-0--0--0--0---0-0-[-9--9---0---7-]
  [---0--0--0--0--0--0--0-]-9--9------0-]-0--0--0--0---0-0-[-9--9-------0-]
  [-----------------------]-------------]------------------[--------------]
                              pre chorus
                              guitars 1&2
  [----0--0--0--0--0--0--0-][--3--------------------[--0------------------]
  [----0--0--0--0--0--0--0-][--3--------------------[--0------------------]
  [----6--6--6--7--7--6--6-][--0--------------------[--0------------------]
  [----0--0--0--0--0--0--0-][--0--------------------[--2------------------]
  [----0--0--0--0--0--0--0-][--x--------------------[--2------------------]
  [------------------------][--3--------------------[--0------------------]

  [-------------------------]--2-------------0--]er[--2--------------0----]
  [-------------------------]--2-------------0--]ne[--2--------------0----]
  [--3--3--3--3--3--3--3--3-]--3-------------0--]dp[--3--------------0----]
  [--4--4--4--4--4--4--4--4-]--4-------------0--] e[--4--------------0----]
  [--4--4--4--4--4--4--4--4-]--4----------------] a[--4-------------------]
  [--2--2--2--2--2--2--2--2-]--2----------------] t[--2-------------------]

  guitars 1&2 played at the same time. tab for both

  guitar 2
  interlude               full bend                          full bend
  ]sr[-------------------[---------------[----------------[---------------]
  ]te[-------------------[---------------[----------------[---------------]
  ]ap[------------12--10-[--12^---12--10-[----------12-10-[----12^--12-10-]
  ]re[---------12--------[---------------[-------12-------[---------------]
  ]ta[-10-11-12----------[---------------[-10-11-12-------[---------------]
  ] t[-------------------[---------------[----------------[---------------]

  guitar1
  ]sr[------------------[-----------------[-----------------[-------------]
  ]te[------------------[-------10--------[-----------------[------10-----]
  ]ap[-----------12-10--[-------10----12--[-----------12-10-[------10--12-]
  ]re[-10-11-12--12-10--[-------------12--[-10-11-12--12-10-[----------12-]
  ]ta[-10-11-12---------[-----------------[-10-11-12--------[-------------]
  ] t[------------------[-----------------[-----------------[-------------]

  guitar2            full bend                        full bend
  [-----------------[--------------[----------------[--------------]er[----|
  [-----------------[--------------[----------------[--------------]ne[----|
  [----------12-10--[---12^--12-10-[----------12-10-[---12^--12-10-]dp[----|
  [-------12--------[--------------[-------12-------[--------------] e[----|
  [-10-11-12--------[--------------[-10-11-12-------[--------------] a[----|
  [-----------------[--------------[----------------[--------------] t[----|
      full bend   guitar1
  ------------][----------------[----------]----------------[---------[er]-|
  ------------][----------------[----10----]----------------[--10-----[ne]-|
  -12^--12-10-][----------12-10-[----10-12-]----------12-10-[--10-12--[dp]-|
  ------------][-10-11-12-12-10-[-------12-]-10-11-12-12-10-[-----12--[ e]-|
  ------------][-10-11-12-------[----------]-10-11-12-------[---------[ a]-|
  ------------][----------------[----------]----------------[---------[ t]-|
           guitar2 plays fig 1
           verse
  --------[--0-0---0--0--]-0-0-0-0----0-0-[-0-0---0--0-]-0-0-0-0-0-0-0---]
  --10----[--0-0---0--0--]-0-0-0-0----0-0-[-0-0---0--0-]-0-0-0-0-0-0-0---]
  --10-12-[--7-7---9--6--]-6-6-6-7----6-6-[-7-7---9--6-]-6-6-6-7-7-6-6---]
  -----12-[--9-9---0--7--]-0-0-0-0----0-0-[-9-9---0--7-]-0-0-0-0-0-0-0---]
  --------[--9-9------0--]-0-0-0-0----0-0-[-9-9------0-]-0-0-0-0-0-0-0---]
  --------[--------------]----------------[------------]-----------------]
                                                          guitar1
                                                          guitar solo
  [-0-0-0--0-[-0-0-0-0--0-0-]-0-0---0--0-]-0-0-0-0-0-0-0-[----------------]
  [-0-0-0--0-[-0-0-0-0--0-0-]-0-0---0--0-]-0-0-0-0-0-0-0-[----------------]
  [-7-7-9--6-[-6-6-6-7--6-6-]-7-7---9--6-]-6-6-6-7-7-6-6-[-4--4-4-7-911/12]
  [-9-9-0--7-[-0-0-0-0--0-0-]-9-9---0--7-]-0-0-0-0-0-0-0-[----------------]
  [-9-9----0-[-0-0-0-0--0-0-]-9-9------0-]-0-0-0-0-0-0-0-[----------------]
  [----------[--------------]------------]---------------[----------------]

  [----------]----------------]------------[----------------[--------------]
  [----------]----------------]-2------0-0-[----------------[-----------7--]
  [--11~~~~~-]-4-4-4--4-7-9-7-]--------4-2-[-4-4-4--4-7-9-7-[-7-7-7-7---7--]
  [----------]----------------]------------[----------------[---------9----]
  [----------]----------------]------------[----------------[--------------]
  [----------]----------------]------------[----------------[--------------]

   guitar2
  [-10--10-10-10--10-9-7-----]---------------[------------------]
  [-----------------------10-]-8-7-----------[------------------]
  [--------------------------]-----9-7---7---[-7-7--------------]
  [--------------------------]---------9---9-[-7-9-----------7--]
  [--------------------------]---------------[-----9-8-7-8-9----]
  [--------------------------]---------------[------------------]

guitar1
  [-----------[----------------------]----------------------[--------------]
  [-----------[----------------------]----------------------[---------7----]
  [-4---4-6-7-[-9-7--99/11---9-11-12-]-11-12-14---12--9\\\\-[---------7----]
  [-----------[----------------------]------------------\\\-[-------9----9-]
  [-----------[----------------------]-------------------\\\[0--0-0--------]
  [-----------[----------------------]----------------------[--------------]

guitar2                     full bend          full bend           half bend
  [-----------------[------------------]------------------[----------------]
  [---------7---7---[--7-------7---7---]--7-------7---7---[---------7---7--]
  [-----7-9-7-9-7-9-[-9^-9-7---7---7---]-9^-9-7---7---7---[-9^-9-7--7---7--]
  [-8-9-------------[--------9---9---9-]--------9---9---9-[-------9---9---9]
  [-----------------[------------------]------------------[----------------]
  [-----------------[------------------]------------------[----------------]

guitar1               bend full
  [---------------------]----------]--------------]---------0-----]
  [--7-7----------------]----------]--------------]----0---0----3-]
  [--7-7-7-7---9^-9^-9^-]----------]--------------]--2----2-------]
  [------9-9------------]--9-------]--------------]---------------]
  [------0-0------------]----------]--------------]--0----0-------]
  [---------------------]--7-------]--------------]---------------]

guitar2                                                              full bend
  [----------------------7-]-10-10-10-10-9-7------]------------------[-----]
  [----7---7--------7---7--]-----------------10-8-]-8-7--------------[-----]
  [--9^----9--7-----7--7---]----------------------]-----9-7-9--9^---9[-----]
  [--------------9---------]----------------------]------------------[-----]
  [------------------------]----------------------]------------------[-----]
  [------------------------]----------------------]------------------[-----]

guitar1
  [----------------]---------------]------------------]-0-0---0--0--]
  [----------------]----------7----]------------------]-0-0---0--0--]
  [----------------]----------7----]-9--9--9--9-7-0-0-]-7-7---9--6--]
  [--7-9--9-7-9----]----------7--9-]-----0--0-0-0-0-0-]-9-9---0--7--]
  [--0-------9---9-]-7-8-9-9-------]-----0--0-0-0-0-0-]-9-9------0--]
  [----------------]---------------]--------------0-0-]-------------]


  [--0-0-0-0----0-0-]-0--0----0---0-]-0-0-0-0-0-0-0-[----------------------]
  [--0-0-0-0----0-0-]-0--0----0---0-]-0-0-0-0-0-0-0-[----------------------]
  [--6-6-6-7----6-6-]-7--7----9---6-]-6-6-6-7-7-6-6-[----------------------]
  [--0-0-0-0----0-0-]-9--9----0---7-]-0-0-0-0-0-0-0-[----------------------]
  [--0-0-0-0----0-0-]-9--9--------0-]-0-0-0-0-0-0-0-[----------------------]
  [-----------------]---------------]---------------[----------------------]

guitar2
  [----------------]--0----------------------------------------------------]
  [----------------]--0----------------------------------------------------]
  [----------------]--7----------------------------------------------------]
  [----------------]-------------------------------------------------------]
  [----------------]-------------------------------------------------------]
  [----------------]-------------------------------------------------------]

guitar2
  [--0-0----0---0-]-0-0-0-0----0-0--]-0------------------------------------]
  [--0-0----0---0-]-0-0-0-0----0-0--]-0------------------------------------]
  [--7-7----9---6-]-6-6-6-7----6-6--]-7--------the end---------------------]
  [--9-9----0---7-]-0-0-0-0----0-0--]-9------------------------------------]
  [--9-9--------0-]-0-0-0-0----0-0--]-9------------------------------------]
  [---------------]-----------------]--------------------------------------]
Tap to rate this tab
# A B C D E F G H I J K L M N O P Q R S T U V W X Y Z