Guitaretab - guitar tabs
Song name
# A B C D E F G H I J K L M N O P Q R S T U V W X Y Z

Libertines - Tomblands tab

---------------------------------------------------------------------
			     TOMBLANDS  The Libertines
---------------------------------------------------------------------

Tabbed by: Caligula
Email: none, as of right now

Tuning: Standard

e|-10-9-7-2----10-9-7--10-9-7----4-----4--4-----4-------------------|
B|----------------------------5--5--5--5--5--5--5--5----------------|
G|------------------------------------------------------------------|
D|------------------------------------------------------------------|
A|------------------------------------------------------------------|
E|------------------------------------------------------------------|
[ Tab from: http://www.guitaretab.com/l/libertines/58714.html ]
e|-----------14-15-14-----------------------------------------------|
B|--12-14-15----------15-12-14-14-----------------------------------|
G|--------------------------------14-14-----------------------------|
D|------------------------------------------------------------------|
A|------------------------------------------------------------------|
E|------------------------------------------------------------------|

e|----------14-15-14------------------------------------------------|
B|-12-14-15----------15-12-14----------------12-12-12-12------------|
G|----------------------------14-14-14-14-14------------------------|
D|------------------------------------------------------------------|
A|------------------------------------------------------------------|
E|------------------------------------------------------------------|

e|-1212-----------1414-1515-1414------------------------------------|
B|------1414-1515----------------1515-1212-14------------12121212---|
G|--------------------------------------------1414141414------------|
D|------------------------------------------------------------------|
A|------------------------------------------------------------------|
E|------------------------------------------------------------------|

			Repeat ad infinitum

| /  slide up
| \  slide down
| h  hammer-on
| p  pull-off
| ~  vibrato
| +  harmonic
| x  Mute note
Related for Tomblands tab