Song name
# A B C D E F G H I J K L M N O P Q R S T U V W X Y Z

Libertines - Youre My Waterloo tab

===================================
The Libertines - You're My Waterloo
===================================

This is my first ever tab submission and all of my own work. I hope it helps.

Unlike the others this is tabbed the correct way to enable you to play both parts 
and melody) on one guitar.

It's such a lovely long lost song.

========================================================

[Chords Used]
VERSE - C E Am F E
(To easily and quickly swap between the F and E chord -
keep the F barre chord shape but slide your first finger off past the nut to a normal E
but using 2nd, 3rd and 4th fingers.)

CHORUS - A E

==========================================================

Intro/Riff 1 - Played after opening C chord. (Notes in brackets not always played but
help
it merge to the chord on top)

E|--0--1--3--1--0-----------0-------------------------------------|
B|-----------------3--1--3-----3--1--0--0(H)1--0------------------|
G|-------------------------------------------------2--0-----------|
D|-------------------------------------------------------(3)--(0)-|
A|----------------------------------------------------------------|
E|----------------------------------------------------------------|

Intro/Riff 2 (H = hammer-on)

E|--0--1--3--1--0--3--5--7--8--7(H)8--7--7--5--0-----------|
B|---------------------------------------------------------|
G|---------------------------------------------------------|
D|---------------------------------------------------------|
A|---------------------------------------------------------|
E|---------------------------------------------------------|

Riff 3
(Played slowly after the 'Stone the crows' part, underneath A and E chords)
Played partly on Cello on the studio recording.

E |-----------------0--2--0--5--4-----------|
B |--2--2--3--2--3-----------------2--------|
G |-----------------------------------------|
D |-----------------------------------------|
A |-----------------------------------------|
E |-----------------------------------------|

(I'm not sure about the superfast riff, please let me know if you know do)


**************************************************************
Please let me know what you think, and please rate this tab as it's my first.
I'll be happy to make alterations.

Rob G.
**************************************************************

This is Pete himself trying to work out the intro
http://www.youtube.com/watch?v=75gt4gh1i4I

========================================================
Tap to rate this tab
# A B C D E F G H I J K L M N O P Q R S T U V W X Y Z