Guitaretab - guitar tabs
Song name
# A B C D E F G H I J K L M N O P Q R S T U V W X Y Z

Libertines - Smashing tab

Smashing  The Libertines

Intro:
D	F#m	Em	A
Play individual notes like this
	D	  etc2
E|------2---------|
B|------3-3-------|
G|---2------2-----|
D|-0--------------|
A|----------------|
E|----------------|

Verse and bridge:
D F#m Em A

Solo:
E|------10-14-10-----10-14-10-----10-14--------------|
B|--10-------------10------------10------------------|
G|---------------------------------------------------|
D|---------------------------------------------------|
A|---------------------------------------------------|
E|---------------------------------------------------|
[ Tab from: http://www.guitaretab.com/l/libertines/64356.html ]
E|----------------------9--------9-9h10h9------------|
B|-10-8------------10---10-10------------------------|
G|-------11-9----------------------------------------|
D|-------------11------------------------------------|
A|---------------------------------------------------|
E|---------------------------------------------------|


E|----------10-9---------12-10------------12-10------|
B|-12------------10-------------10-------------------|
G|----12-9----------9-9------------11-11-------------|
D|---------------------------------------------------|
A|---------------------------------------------------|
E|---------------------------------------------------|


My first entry in here! So, any corrections: HYPERLINK
"mailto:untitled102@gmail.com"  untitled102@gmail.com

Karin x
Related for Smashing tab