Guitaretab - guitar tabs
Song name
# A B C D E F G H I J K L M N O P Q R S T U V W X Y Z

Libertines - I Got Sweets tab

-------------------------------------------------------------------------------
             THE LIBERTINES - I GOT SWEETS  BABYSHAMBLES SESSIONS
-------------------------------------------------------------------------------

Tabbed by: Josh_Olley

Tuning: Standard (EADGBe)



  Intro -


    G	      C9     D9		 G       C9     D9
e|-----3------------------------------3---------------------------------------|
B|-----3-----3------5-5-5-5-5---------3-----3------5-5-5-5-5------------------|
G|-----0-----3------5-5-5-5-5---------0-----3------5-5-5-5-5------------------|
D|-----0-----2------4-4-4-4-4---------0-----2------4-4-4-4-4------------------|
A|--2----(1)/3--(3)/5-5-5-5-5-------2---(1)/3--(3)/5-5-5-5-5------------------|
E|--3-------------------------------3-----------------------------------------|

   G      G7		  C      C7		 G         D       D9
e|----3---1-1-1-1-1------------------------3-5-3------------------------------|
B|----0---0-0-0-0-0------5---4-4-4-4-4-----3-3-3---7-7-7-7--5-----------------|
G|----0---0-0-0-0-0------5---3-3-3-3-3-----4-4-4---7-7-7-7--5-----------------|
D|----0---0-0-0-0-0---5--5---5-5-5-5-5-----5-5-5---7-7-7-7--4-----------------|
A|-2------2-2-2-2-2---3------3-3-3-3-3---5---------5-5-5-5--5-----------------|
E|-3------3-3-3-3-3----------------------3------------------------------------|


  Solo -
[ Tab from: http://www.guitaretab.com/l/libertines/75172.html ]
e|-12p10-12p10-12p10-12p10-12p10-10-12---------------------------------------|
B|-------------------------------------12-10---------------------------------|
G|-------------------------------------------12-9---------------------9h12---|
D|------------------------------------------------12-12-12-1212-9h12--------|
A|---------------------------------------------------------------------------|
E|---------------------------------------------------------------------------|

e|---------------------------------------------------------------------------|
B|---------------------------------------------------------------------------|
G|-------9h1212p9-12p9-------------------------9-12p9p7--12p9p7---14b-12----|
D|--9h12----------------12-9--------------/9h12------------------------------|
A|---------------------------12-10-------------------------------------------|
E|---------------------------------12-10-------------------------------------|

e|----------------------15---------------------------------------------------|
B|------------------15--15-15------------------------------------------------|
G|----12----12--12-14b----14br-12----12~~-----------------------------------|
D|-14----14------------------------14----------------------------------------|
A|---------------------------------------------------------------------------|
E|---------------------------------------------------------------------------|
Related for I Got Sweets tab