Song name
# A B C D E F G H I J K L M N O P Q R S T U V W X Y Z

Libertines - Love Raign Oer Me tab

Artis: Pete Doherty
Song: Love Rain O'er Me
Album: Untitled
Tabbed by: Joburn
Email: fabba9@hotmail.co.uk
Tuning: Standard (EADGBe)

Both 'Untitled' and 'Shaking and Withdrawn Megamix' are immense albums showcasing pete 
acoustic abilities. This is Pete Dohertys 'Untitled' album version of The Libertines - 
Rain O'er Me.

Intro: Am dm g c csus2 (x2)

e|-0-0-----1-1----3-3---0-0-------------------------------------------------|
B|-1-1-----3-3----0-0---1-1-------------------------------------------------|
G|-2-2-----2-2----0-0---0-0-------------------------------------------------|
D|-2-2-----0-0----0-0---2-0-------------------------------------------------|
A|-0-0------------2-2---3-3-------------------------------------------------|
E|-0-0------------3-3---0-0-------------------------------------------------|

Verse 1:

  I never really understand what i
e|-0-0-----1-1----3-3---0-0-------------------------------------------------|
B|-1-1-----3-3----0-0---1-1-------------------------------------------------|
G|-2-2-----2-2----0-0---0-0-------------------------------------------------|
D|-2-2-----0-0----0-0---2-0-------------------------------------------------|
A|-0-0------------2-2---3-3-------------------------------------------------|
E|-0-0------------3-3---0-0-------------------------------------------------|
   Am      dm      g    c csus2

believe you your so sly and underhand i think i'll
e|-0-0-----1-1------------3-3---0-0-----------------------------------------|
B|-1-1-----3-3------------0-0---1-1-----------------------------------------|
G|-2-2-----2-2------------0-0---0-0-----------------------------------------|
D|-2-2-----0-0------------0-0---2-0-----------------------------------------|
A|-0-0--------------------2-2---3-3-----------------------------------------|
E|-0-0--------------------3-3---0-0-----------------------------------------|
   Am      dm             g     c csus2

leave you now with everything i stole since we met but i stole no
e|-0-0--------1-1-------------3-3-----------0-0-----------------------------|
B|-1-1--------3-3-------------0-0-----------1-1-----------------------------|
G|-2-2--------2-2-------------0-0-----------0-0-----------------------------|
D|-2-2--------0-0-------------0-0-----------2-0-----------------------------|
A|-0-0------------------------2-2-----------3-3-----------------------------|
E|-0-0------------------------3-3-----------0-0-----------------------------|   Am       
 dm              g             c csus2

   kisses just sum books and the odd cigarette.
e|-0-0---------1-1-------3-3-------------0-0-0-0-----------------------------|
B|-1-1---------3-3-------0-0-------------1-1-1-1-----------------------------|
G|-2-2---------2-2-------0-0-------------0-0-0-0-----------------------------|
D|-2-2---------0-0-------0-0-------------2-2-0-2-----------------------------|
A|-0-0-------------------2-2-------------3-3-3-3-----------------------------|
E|-0-0-------------------3-3-------------0-0-0-0-----------------------------|
   Am	       dm        g               c c csus2 c

   i never loved new beginnings anyway       it must be true what they say
e|-0-0--------------------------0-0----3-3---0-0--------0-0-0-0-----------|
B|-1-1--------------------------1-1----0-0---1-1--------0-0-0-0-----------|
G|-2-2--------------------------2-2----0-0---0-0--------0-0-0-0-----------|
D|-2-2--------------------------3-3----0-0---2-0--------2-2-0-2-----------|
A|-0-0---------------------------------2-2---3-3--------2-2-2-2-----------|
E|-0-0---------------------------------3-3---0-0--------0-0-0-0-----------|
   Am			        f      g     c csus2    em

verse 2: (Same same as first verse)

oh well you've scubbered all my best laid plans i cant
believe you just dimissed my plee right out of hand i cant
believe you've listed everything i stole since we met but i stole
no kisses just sum books and a butterfly net

Outro:

its raining and nows its sunny
e|0-0-0-0---0-0--0-0-0-0-0-0--|
B|1-1-1-1---1-1--0-0-0-0-0-0--|
G|0-0-0-0---0-0--0-0-0-0-0-0--|
D|2-2-0-2---2-0--2-2-2-2-2-2--|
A|3-3-3-3---3-3--2-2-2-2-2-2--|
E|0-0-0-0---0-0--0-0-0-0-0-0--|

its raining and nows its sunny
e|0-0-0-0---0-0--0-0-0-0-0-0--|
B|1-1-1-1---1-1--0-0-0-0-0-0--|
G|0-0-0-0---0-0--0-0-0-0-0-0--|
D|2-2-0-2---2-0--2-2-2-2-2-2--|
A|3-3-3-3---3-3--2-2-2-2-2-2--|
E|0-0-0-0---0-0--0-0-0-0-0-0--|

That should do the trick hopefully, first tab so give me some ratings and comments, 
im off to get some sleep.
Tap to rate this tab
# A B C D E F G H I J K L M N O P Q R S T U V W X Y Z