Song name
# A B C D E F G H I J K L M N O P Q R S T U V W X Y Z

Libertines - Cola Queen tab

Jason McCombe

I'm pretty sure this is correct, but if you think otherwise please let me know.
Elementjmc39@hotmail.com


(* mute)
e|------------------------------------------------|
B|------------------------------------------------|
G|------------------------------------------------|
D|-7*7*7*7*7*7*7*7/--12*12*12*12*12*12*12*12\-----|
A|-7*7*7*7*7*7*7*7/--12*12*12*12*12*12*12*12\-----|
E|-5*5*5*5*5*5*5*5/--10*10*10*10*10*10*10*10\-----| x4

e|-5--5--5--5----5--5--5----7--|
B|-5--5--5--5----7--7--7----9--|
G|-6--6--6--6----7--7--7----9--|
D|-7--7--7--7----7--7--7----9--|
A|-7--7--7--7----5--5--5----7--|
E|-5--5--5--5------------------| x4

e|-5--5--5--5----5--5--5--5--|
B|-5--5--5--5----7--7--7--7--|
G|-6--6--6--6----7--7--7--7--|
D|-7--7--7--7----7--7--7--7--|
A|-7--7--7--7----5--5--5--5--|
E|-5--5--5--5----------------| x4

e|-4--4--4--4----5--5--5--5--|
B|-6--6--6--6----7--7--7--7--|
G|-6--6--6--6----7--7--7--7--|
D|-6--6--6--6----7--7--7--7--|
A|-4--4--4--4----5--5--5--5--|
E|---------------------------| x4

e|-7-7-7-7-7-7-7-7-7-7-7-7-7-7-7-7--|
B|-9-9-9-9-9-9-9-9-9-9-9-9-9-9-9-9--|
G|-9-9-9-9-9-9-9-9-9-9-9-9-9-9-9-9--|
D|-9-9-9-9-9-9-9-9-9-9-9-9-9-9-9-9--|
A|-7-7-7-7-7-7-7-7-7-7-7-7-7-7-7-7--|
E|----------------------------------|

e|-5--5--5--5----2--2--2--2--|
B|-5--5--5--5----2--2--2--2--|
G|-6--6--6--6----2--2--2--2--|
D|-7--7--7--7----4--4--4--4--|
A|-7--7--7--7----4--4--4--4--|
E|-5--5--5--5----2--2--2--2--| x4


e|-5--5--5--5----5--5--5----7--|
B|-5--5--5--5----7--7--7----9--|
G|-6--6--6--6----7--7--7----9--|
D|-7--7--7--7----7--7--7----9--|
A|-7--7--7--7----5--5--5----7--|
E|-5--5--5--5------------------| x4

e|-5--5--5--5----5--5--5--5--|
B|-5--5--5--5----7--7--7--7--|
G|-6--6--6--6----7--7--7--7--|
D|-7--7--7--7----7--7--7--7--|
A|-7--7--7--7----5--5--5--5--|
E|-5--5--5--5----------------| x4

e|-4--4--4--4----5--5--5--5--|
B|-6--6--6--6----7--7--7--7--|
G|-6--6--6--6----7--7--7--7--|
D|-6--6--6--6----7--7--7--7--|
A|-4--4--4--4----5--5--5--5--|
E|---------------------------| x4

e|-7-7-7-7-7-7-7-7-7-7-7-7-7-7-7-7--|
B|-9-9-9-9-9-9-9-9-9-9-9-9-9-9-9-9--|
G|-9-9-9-9-9-9-9-9-9-9-9-9-9-9-9-9--|
D|-9-9-9-9-9-9-9-9-9-9-9-9-9-9-9-9--|
A|-7-7-7-7-7-7-7-7-7-7-7-7-7-7-7-7--|
E|----------------------------------|

e|-5--5--5--5----2--2--2--2--|
B|-5--5--5--5----2--2--2--2--|
G|-6--6--6--6----2--2--2--2--|
D|-7--7--7--7----4--4--4--4--|
A|-7--7--7--7----4--4--4--4--|
E|-5--5--5--5----2--2--2--2--| x4

e|-5--5--5--5----5--5--5----7--|
B|-5--5--5--5----7--7--7----9--|
G|-6--6--6--6----7--7--7----9--|
D|-7--7--7--7----7--7--7----9--|
A|-7--7--7--7----5--5--5----7--|
E|-5--5--5--5------------------| x4

e|-5--5--5--5----5--5--5--5--|
B|-5--5--5--5----7--7--7--7--|
G|-6--6--6--6----7--7--7--7--|
D|-7--7--7--7----7--7--7--7--|
A|-7--7--7--7----5--5--5--5--|
E|-5--5--5--5----------------| x4

e|-4--4--4--4----5--5--5--5--|
B|-6--6--6--6----7--7--7--7--|
G|-6--6--6--6----7--7--7--7--|
D|-6--6--6--6----7--7--7--7--|
A|-4--4--4--4----5--5--5--5--|
E|---------------------------| x4

e|-7-7-7-7-7-7-7-7-7-7-7-7-7-7-7-7--|
B|-9-9-9-9-9-9-9-9-9-9-9-9-9-9-9-9--|
G|-9-9-9-9-9-9-9-9-9-9-9-9-9-9-9-9--|
D|-9-9-9-9-9-9-9-9-9-9-9-9-9-9-9-9--|
A|-7-7-7-7-7-7-7-7-7-7-7-7-7-7-7-7--|
E|----------------------------------|

e|-5--5--5--5----2--2--2--2--|
B|-5--5--5--5----2--2--2--2--|
G|-6--6--6--6----2--2--2--2--|
D|-7--7--7--7----4--4--4--4--|
A|-7--7--7--7----4--4--4--4--|
E|-5--5--5--5----2--2--2--2--| x4

e|-5--5--5--5----5--5--5----7--|
B|-5--5--5--5----7--7--7----9--|
G|-6--6--6--6----7--7--7----9--|
D|-7--7--7--7----7--7--7----9--|
A|-7--7--7--7----5--5--5----7--|
E|-5--5--5--5------------------| x4

e|-5----|
B|-5----|
G|-6----|
D|-7----|
A|-7----|
E|-5----|
Tap to rate this tab
# A B C D E F G H I J K L M N O P Q R S T U V W X Y Z