Song name
# A B C D E F G H I J K L M N O P Q R S T U V W X Y Z

Libertines - Mr Finnigan tab

                 MR.FINNIGAN BY THE LIBERTINES
               ALBUM:DONT LOOK BACK INTO THE SUN[EP]
INTRO (WHEN 2ND GUITAR COMES IN)
TUNING: STANDARD

E|--------------------------------------------------------------------------|
B|--9-12--0-2-0-2-0-0-0--9-12----0-2-0-2-0-2-5-9-12--12-14-12-14-12-9-7-9-7-|
G|--------------------------------------------------------------------------|
D|--------------------------------------------------------------------------|
A|--------------------------------------------------------------------------|
E|--------------------------------------------------------------------------|

E|--------------------|
B|-5-2-5-2-0----------|
G|----------1-0-------|
D|-------------4-0-1-2|
A|--------------------|
E|--------------------|
Tap to rate this tab
# A B C D E F G H I J K L M N O P Q R S T U V W X Y Z