Song name
# A B C D E F G H I J K L M N O P Q R S T U V W X Y Z

Libido - En Esta Habitacin tab

It is the intro of the song, is the correct!!!!

e|-------------0--------------|
b|-------12-------12----12----|
g|----11----11-------11-------|
d|----------------------------|
a|----------------------------|
E|----------------------------|

e|-------------------12----14--14--12----------------12-------14--12--|
b|----10----10----10----10------------10----10----10----10------------|
g|-------11----11------------------------11----11---------------------|
d|--------------------------------------------------------------------|
a|--------------------------------------------------------------------|
E|--------------------------------------------------------------------|

e|-------------------12----14--14--12----------------12-------14--12--|
b|----10----10----10----10------------10----10----10----10------------|
g|-------11----11------------------------11----11---------------------|
d|--------------------------------------------------------------------|
a|--------------------------------------------------------------------|
E|--------------------------------------------------------------------|

Tanto, tanto, tanto, tiempo al tiempooooooo!!!
Tap to rate this tab
 
# A B C D E F G H I J K L M N O P Q R S T U V W X Y Z