Song name
# A B C D E F G H I J K L M N O P Q R S T U V W X Y Z

Life In Film - Carla Acoustic tab

I've taken the Chords from T.Dot who had them nailed perfectly - however it doesn't have 
the second guitar or the picking pattern shown on the acoustic version
...i think its mostly right, can't quite hear what he's playing on the 'watchlistentell' 
version on youtube

A - 577655
C#m - 446654
D - [10][12][12][11][10][10]
Bm6 - xx0434
F#m - x44222
E7 - 020130
E - 779797

Tabbed by:Cooganium

Tuning:standard

Intro A, C#m, D, A
guitar1
   A                           C#m
e|--------------------------------------------------------------------------|
B|---5---5---5----5---5---5-----5---5---5----5---5---5----------------------|
G|----6---6--------6---6---------6---6--------6---6-------------------------|
D|-----7---7--------7---7-----6---6---6--------6---6------------------------|
A|--7------------7-------------------------5--------------------------------|
E|--------------------------------------------------------------------------|

   D                                           A
e|--------------------------------------------------------------------------|
B|----10-----10-----10-----10-----10-----10------5---5---5----5---5---5-----|
G|------11-----11------------11-----11------------6---6--------6---6--------|
D|--------12-----12------------12-----12-----------7---7--------7---7-------|
A|--12-------------------12--------------------7------------7---------------|
E|--------------------------------------------------------------------------|

  Guitar2
    [A]                           [C]
e|--------------------------------4-5---4-4---------------------------------|
B|--------5--------5--------5----------------5------------------------------|
G|--4--6-----4--6-----4--6-----4---------------6----------------------------|
D|--------------------------------------------------------------------------|
A|--------------------------------------------------------------------------|
E|--------------------------------------------------------------------------|
    [D]                                  [A]
e|----------5--------5-----7--5-5-4-5---------------------------------------|
B|-------7--------7---------------------------------------------------------|
G|----7--------7--------7---------------------------------------------------|
D|--------------------------------------------------------------------------|
A|--------------------------------------------------------------------------|
E|--------------------------------------------------------------------------|

Verse - same as intro, second guitar comes in halfway through with same chords & picking pattern

Pre-chorus:
  Guitar 1 strums
     Bm6, C#m, F#m, C#, D
     Bm6, C#m, F#m, C#, D
     E

  Guitar 2
    [Bm6]        [C#m]        [F#m]         [C#]          [D]
e|-----------------------------------------------------------------------|
B|-----------------------------------------------------------------------|
G|--13---13-13---13---13-13----------------------------------------------| x2
D|--12---12-12---14---14-14----------------------------------------------|
A|--14---14-14---16---16-16---14--16----------14h16-14-12-14h16-12-------|
E|-----------------------------------17--14------------------------------|
    [E]
e|--------------------------------------------------------------------------|
B|--------------------------------------------------------------------------|
G|--13-13--1313--13-13--1313------------------------------------------------|
D|--12-12--1212--12-12--1212------------------------------------------------|
A|--14-14--1414--14-14--1414------------------------------------------------|
E|--------------------------------------------------------------------------|

  Chorus:
    Guitar 1 strums
      A, C#m, F#m, D
      A, C#m, F#m, D
      A, C#m, F#m, D
      A, C#m, F#m, D

    Guitar 2
  [A]                [C#m]             [F#m]             [D]
e|---12----12----12----12----12----12----14----14----14----14----14------|
B|-----14----14----------14----14----------14----14----------15----15----|
G|-14----14----14----13----13----13----------14----14----14----14----14--| x4
D|-------------------------------------16--------------------------------|
A|-----------------------------------------------------------------------|
E|-----------------------------------------------------------------------|

Verse 2: Guitar 1 strums same chords as intro & verse
          Guitar 2 picks w/ same pattern as intro & chorus
          NOTE only for 2 stanzas

Pre-Chorus 2: same as before

Chorus 2: Same as before

Solo: Guitar 1 strums
           A, C#m, D, E
      Guitar 2

e|--------------------------------------------------------------------------|
B|--------------------------------------------------------------------------|
G|-------------4-6-446-4-------4-6-446-4------------------------------------|
D|--7-----7-777----------7---------------7----------------------------------|
A|-----7-----------------------------------7--7/9--9/11-11/12-12/14\12------|
E|--------------------------------------------------------------------------|

Chorus 3: just Guitar 1 for 2 stanzas, and only strum at start of each bar
          Guitar 2 comes in star of stanza 3 with picking pattern & Guitar 1
          plays w/ same strumming pattern as previous choruses.

************************************

| /   slide up
| \   slide down
| h   hammer-on
| p   pull-off
| ~   vibrato
| +   harmonic
| x   Mute note
| b   Bend
| pb  Pre-bend
| br  Bend release
| pbr Pre-bend release
| brb Bend release bend

************************************
Tap to rate this tab
 
# A B C D E F G H I J K L M N O P Q R S T U V W X Y Z