Song name
# A B C D E F G H I J K L M N O P Q R S T U V W X Y Z

Life In Your Way - Salty Grave tab

-------------------------------------------------------------------------------
			     Salty Grave - Life In Your Way
-------------------------------------------------------------------------------
Tabbed by: Dave
Email: soccerkid843@comcast.net

This is my first tab and I only have the first minute of the song. More coming. This is 
the main guitar part. There is a background at 10 seconds that I haven't figured out yet.

Tuning: Drop

d|------10-----------------10------------|
A|---------12---12-----------12--12------|
F|----12------12--------12-----12--------|
C|-10----------------10------------------|
G|---------------------------------------|
C|---------------------------------------|  2x


d|-------10-------------10--------------|
A|----------12--12----------12----12----|
D|---12------12------12-------12--------|
C|--------------------------------------|
G|--0---------------0-------------------|
C|--------------------------------------|  2x


*This part you have to listen to closely to get rhythm.

d|--15p0-14p0-12p0----15p0-14p0-12p0----15p0-14p0-10p0--|
A|------------------------------------------------------|
F|------------------------------------------------------|
C|------------------------------------------------------|
G|------------------------------------------------------|
C|------------------------------------------------------| 3x

d|--15p0-14p0-15p0-17p0-19p0-18p0----|
A|-----------------------------------|
F|-----------------------------------|
C|-----------------------------------|
G|-----------------------------------|
C|-----------------------------------| 1x

d|--15p0-14p0-12p0----15p0-14p0-12p0----15p0-14p0-10p0---|     |----|
A|-------------------------------------------------------|     |----|
F|-------------------------------------------------------|     |----|
C|-------------------------------------------------------|     |-7--|
G|-------------------------------------------------------|     |-5--|
C|-------------------------------------------------------| 3x  |-5--|

*You are going to have to find the rhythm to this part*
d|-------------------------------------|
A|-------------------------------------|
D|--5----0--------------0--------------|
C|--3----2----3----5----2----3---------|
G|--3----2----3----5----2----3---------|
C|------------3----5---------3---------|  2x

d|----------------------------------------------------------------------|
A|----------------------------------------------------------------------|
D|-----------0----------------------------0-----------------------------|
C|--3-----3--2--5--2--3----3--5--2--3-----2--5--2--3---3--5--2--3---3---|
G|--3-----3--2--5--2--3----3--5--2--3-----2--5--2--3---3--5--2--3---3---|
C|--3-----3-----5--2--3----3--5--2--3--------5--2--3---3--5--2--3---3---|


That's all I got so far. The rhythm is strange but if you listen closely you can easily 
Enjoy and I can use some feedback to see how well I've done


| /  slide up
| \  slide down
| h  hammer-on
| p  pull-off
| ~  vibrato
| +  harmonic
| x  Mute note
===============================================================================
Tap to rate this tab
 
# A B C D E F G H I J K L M N O P Q R S T U V W X Y Z