Song name
# A B C D E F G H I J K L M N O P Q R S T U V W X Y Z

Life Of Agony - Lets Pretend tab

Date: 30.04.01
Tabber: Juergen Feichtinger (jfeic9kd@htl.minic.ac.at)
Artist: Life of Agony
Song/Title: Let's pretend Solo
Cd: Ugly

This is the first Song I have tabbed but I'm quiet sure of it.
Please mail additions, corrections, flames or comments
to jfeic9kd@htl.minic.ac.at

Symbols used:
~~~ - vibrato
5p4 - pull of
5b6 - bend half step
4/2 - slide down
/14 - slide up
 x  - muted
|--------------------------------------------------------12-12-14|
|-------7--4~~~--5-4-4-5-5p4/2------------3-4-5b6-4--/14---------|
|-4~~~--------------------------4-4-x-x-4------------------------|
|----------------------------------------------------------------|
|----------------------------------------------------------------|
|----------------------------------------------------------------|


|-12----14-12-14-------------------------------------------------|
|----14----------------------------------------------------------|
|----------------------------------------------------------------|
|----------------------------------------------------------------|
|----------------------------------------------------------------|
|----------------------------------------------------------------|
Tap to rate this tab
 
# A B C D E F G H I J K L M N O P Q R S T U V W X Y Z