Song name
# A B C D E F G H I J K L M N O P Q R S T U V W X Y Z

Life Of Agony - Unstable tab

Help us improve GuitareTab! Take a short survey!
              ***** Unstable by Life of Agony *****
                       From the Ugly Album

Tabbed by Gemini Thunder;
Comments, corrections, additions, etc.:  gt@kdn0.attnet.or.jp

Tune The Guitar 1 step down

Notation Legend:
----------------
 ~     : vibrato
 ^     : bend


Rhy Fig 1                                     
                       P.M.------------|        
D|:------------------------------------:|
A|:------------------------------------:|
F|:------------------------------------:|
C|:-------3---3-5-7--------------------:|
G|:-(7)/5---5-------5~-----------------:|
D|:--------------------0-0-0-0-0-0-0-0-:|

Rhy Fig 2
        P.M.------|
|-----------------:|---|
|-----------------:|---|
|-----------------:|---|
|-7\6/7-----------:|-2-|
|-5\4/5-----------:|-2-|
|-------0-0-0-0-0-:|-0-|

Fill 1
|--------------|
|--------------|
|--------------|
|--------------|
|-(12)/5~\(12)-|
|--------------|

Bridge                   P.M.---------|
|--------------------------------------|
|--------------------------------------|
|--------------------------------------|
|---7-7-7h8-5h6-5-7/8------------------|
|-5-------------------5~---------------|
|------------------------0-0-0-0-0-0-0-|
                                    P.M.----------------|
|---------------------------------|----------------------|
|---------------------------------|----------------------|
|---------------------7-8^7-------|----------------------|
|---7-7-7h8-5h6-5-7/8-------8-7-5-|-2(32X)-5(16X)-7(16X)-|
|-5-------------------------------|-2------5------7------|
|---------------------------------|-0------3------5------|
Related for Unstable tab