Song name
# A B C D E F G H I J K L M N O P Q R S T U V W X Y Z

Life Of Agony - Angry Tree tab

e|---------------------------------------------------------------------------------|
B|---------------------------------------------------------------------------------|
G|--------------------------------------7-10-7-------------------------------------|
D|--8---8---8-8-8---8-8-7---7-7-8---7-8--------8---8---8-8-8---8-8-10--------------|
A|---------------------------------------------------------------------------------|
E|----------------------------------------------------------------------11-11------|


e|-----------------------------------------|
B|--10-10b~---10-10b~---10-10b~---10-10b~--|
G|-----------------------------------------|
D|-----------------------------------------|
A|-----------------------------------------|
E|-----------------------------------------|

e|--13--11--10-----------------------------|
B|--------------13--11--10-----------------|  play 3 times, then play 4 times but faster
G|-----------------------------------------|
D|-----------------------------------------|
A|-----------------------------------------|
E|-----------------------------------------|

e|-----------------|
B|--10b~--11b~-----|
G|-----------------|
D|-----------------|
A|-----------------|
E|-----------------|

And thats it, it's actually not hard to play but in the 3rd part you have to be very
A bit of practising will make it *gg*
Please rate, thanx!
Tap to rate this tab
# A B C D E F G H I J K L M N O P Q R S T U V W X Y Z