Song name
# A B C D E F G H I J K L M N O P Q R S T U V W X Y Z

Life Of Agony - Wicked Ways tab

verse
e(------------)(-------)
b(------------)(-------)
g(------------)(-------)
d(------------)(-------)
a(-------3/10-)(-------)
D(--10/5------)(--7b-5-)

verse(lead)
e(------)
b(--8-8-)
g(------)
d(------)
a(------)
D(------)

chorus
e(------------------------------------------)
b(------------------------------------------)
g(------------------------------------------)
d(--8888888-8-3-5---87-7777777-78-558-87-87-)
a(--8888888-8-3-5---87-7777777-78-558-87-87-)
D(--8888888-8-3-5---87-7777777-78-558-87-87-)
  pm.......

2nd verse(lead)
e(---------------------------------------)
b(----8-9b-6---8-9b------98---8---98---8-)
g(--5--------5---------------------------)
d(---------------------------------------)
a(---------------------------------------)
D(---------------------------------------)

breakdown  (x4)
e(-----------------)
b(-----------------)
g(-----------------)
d(--3-3-3-33333333-)
a(--3-3-3-33333333-)
D(--3-3-3-33333333-)
          harmonics

solo (all harmonics with srumming hand)
e(-----------------------------------------------)
b(--8-87-33333333-87-8/12-12-13-10-87-8-10-12b13-)
g(-----------------------------------------------)
d(-----------------------------------------------)
a(-----------------------------------------------)
D(-----------------------------------------------)

solo continued
e(--------------------------)
b(--13-12-13----------11-10-)
g(-----------12-12/10-------)
d(--------------------------)
a(--------------------------)
D(--------------------------)
Tap to rate this tab
 
# A B C D E F G H I J K L M N O P Q R S T U V W X Y Z