Song name
# A B C D E F G H I J K L M N O P Q R S T U V W X Y Z

Lifehouse - You And Me Live tab

-------------------------------------------------------------------------------
                    You and Me(LIVE TOUR VERSION) - Lifehouse
-------------------------------------------------------------------------------
Tabbed by: Alex Price
Email: apguitarguy40@yahoo.com

Tuning: Standard (EADGBe)

THIS TAB IS 99.9999% correct.I've known this song for many years now, and noticed that
best tab on this site for this song had extra riffs thrown in and slightly different
variations from the actual song, which is why I tabbed it.This is the LIVE VERSION that 
played on their tour for the (2005) Lifehouse album. I've seen many videos and tried
watch as many close ups as i could to get this tab right. This is a very easy song in my 
but it is a very good one. If you noticed I messed up the chord names or something like 
email me, otherwise please just comment for suggestions.

Intro/Verse:

     G       C2     G/F#    G/B     Em7      D      C2     C
E----3-------3-------3-------3-------3-------3-------3-----3---|
B----3-------3-------3-------3-------3-------3-------3-----3---|
G----0-------0-------0-------0-------0-------2-------0-----0---|
D----0-------2-------0-------0-------2-------0-------0h2---2---|
A----2-------3-------X-------2-------2-------0-------3-----3---|
E----3-------x-------2-------x-------0---------------X-----x---|


     G          C2       G/F#       G/B
E----3-----------3-------3-----------3-------|
B----3-----------3-------3-----------3-------|
G----0-----------0-------0-----------0-------|
D----0-----------2-------0-----------0-------|
A----2-----------3-------2-----------2-------|
E----3-----------X-------2-----------0-------|

         Em7          D        C2
E---------3-----------3--------3-------3--|
B---------3-----------3--------3-------3--|
G---------0-----------2--------0-------0--|
D---------2-----------0--------0h2-----2--|
A---------2-----------0--------3-------3--|
E---------0-----------2--------0-------X--|


(Repeat Verse)

Chorus:


            G      Asus     C2
E-----------3-------3-------3------------|
B-----------3-------3-------3------------|
G-----------0-------0-------0------------|
D-----------0-------2-------2------------|
A-----------2-------0-------3------------|
E-----------3-------X-------X------------|


         Em7        G    Em7       D
E--------3----------3-----3--------3-------|
B--------3----------3-----3--------3-------|
G--------0----------0-----0--------2-------|
D--------2----------0-----2--------0-------|
A--------2----------2-----2--------0-------|
E--------0----------3-----0----------------|

            G      Asus     C2
E-----------3-------3-------3----------------|
B-----------3-------3-------3----------------|
G-----------0-------0-------0----------------|
D-----------0-------2-------2----------------|
A-----------2-------0-------3----------------|
E-----------3-------X-------0----------------|

         Em7          G      Em7              D         C2
E--------3------------3------3----------------3----------3------|
B--------3------------3------3----------------3----------3------|
G--------0------------0------0----------------2----------0------|
D--------2------------0------2----------------0----------2------|
A--------2------------2------2----------------0----------3------|
E--------0------------3------0----------------2----------x------|


(ATTENTION!!!!!:Instead of C2 being the last chord on the second time playing the chorus
the bridge you should play Em7)


Bridge

     Bm        C             G       D2           Em7
E----2---------0-------------3-------0------------3-----------|
B----3---------1-------------3-------3------------3-----------|
G----4---------0-------------0-------2------------0-----------|
D----4---------2-------------0-------0------------2-----------|
A----2---------3-------------x-------0------------2-----------|
E----x---------0-------------3-------0------------0-----------|

     Am                    D2
E----0---------------------0----------------|
B----1---------------------3----------------|
G----2---------------------2----------------|
D----2---------------------0----------------|
A----0---------------------0----------------|
E----0---------------------0----------------|

     Bm                    Cm
E----2---------------------3-------|
B----3---------------------4-------|
G----4---------------------5-------|
D----4---------------------5-------|
A----2---------------------3-------|
E----x---------------------x-------|


Ending Chorus/Outro:

            G      Asus     C2
E-----------3-------3-------3------------|
B-----------3-------3-------3------------|
G-----------0-------0-------0------------|
D-----------0-------2-------2------------|
A-----------2-------0-------3------------|
E-----------3-------X-------X------------|


         Em7        G    Em7       D
E--------3----------3-----3--------3-------|
B--------3----------3-----3--------3-------|
G--------0----------0-----0--------2-------|
D--------2----------0-----2--------0-------|
A--------2----------2-----2--------0-------|
E--------0----------3-----0----------------|

            G      Asus     C2
E-----------3-------3-------3----------------|
B-----------3-------3-------3----------------|
G-----------0-------0-------0----------------|
D-----------0-------2-------2----------------|
A-----------2-------0-------3----------------|
E-----------3-------X-------0----------------|

         Em7          G      Em7              D         C2
E--------3------------3------3----------------3----------3------|
B--------3------------3------3----------------3----------3------|
G--------0------------0------0----------------2----------0------|
D--------2------------0------2----------------0----------2------|
A--------2------------2------2----------------0----------3------|
E--------0------------3------0----------------2----------x------|

| /  slide up
| \  slide down
| h  hammer-on
| p  pull-off
| ~  vibrato
| +  harmonic
| x  Mute note
==============================================================================
Tap to rate this tab
# A B C D E F G H I J K L M N O P Q R S T U V W X Y Z