Song name
# A B C D E F G H I J K L M N O P Q R S T U V W X Y Z

Lifehouse - Crash And Burn tab

Artist: Lifehouse
Song: Crash and Burn

Tuning: Half a step down (Eb,Ab,Db,Gb,Bb,Eb)


Intro
eb|------------------------------------------------------------------------------------------------------------------|
Bb|------------------------------------------------------------------------------------------------------------------|
Gb|-6-6-6-6-6/-13-13-13-13-13\-6-6-6-6-6/-13-13-13-13-13-------------------------------------------------------------|
Db|-7-7-7-7-7/-14-14-14-14-14\-7-7-7-7-7/-14-14-14-14-14-------------------------------------------------------------|
Ab|-0-0-0-0-0--0--0--0--0--0---0-0-0-0-0--0--0--0--0--0--9h11-11-11-11-9h11-11-11-11-9h11-11-11-11-11-9h11-11-11-11--|
Eb|------------------------------------------------------0-0--0--0--0--0-0--0--0--0--0-0--0--0--0--0--0-0--0--0--0---|
(Repeat once)


Play this over the verse
eb|------------------------------------------------------------------------------------------------------------------|
Bb|------------------------------------------------------------------------------------------------------------------|
Gb|-6-6-6-6-6/-13-13-13-13-13\-6-6-6-6-6/-13-13-13-13-13-------------------------------------------------------------|
Db|-7-7-7-7-7/-14-14-14-14-14\-7-7-7-7-7/-14-14-14-14-14-------------------------------------------------------------|
Ab|-0-0-0-0-0--0--0--0--0--0---0-0-0-0-0--0--0--0--0--0--9h11-11-11-11-9h11-11-11-11-9h11-11-11-11-11-9h11-11-11-11--|
Eb|------------------------------------------------------0-0--0--0--0--0-0--0--0--0--0-0--0--0--0--0--0-0--0--0--0---|

Verse 1
All these lies are catching up to me
I just can't put it down and go to sleep
And I close my eyes and all that I can see
Is someone who I'm never gonna be


Pre-chorus 1
A/C#
Could you remind me to forget
     B/D#
The things I did the things I said
  A/C#
I hope that you can bring me back
  B/D#
I have to make it right


Chorus 1
     C#m7               Badd4/D#
If I fall and crash and burn
           Bsus4/E          Asus2
At least I know your by my side
     C#m7               Badd4/D#
As I crawl that lessons learned
     Bsus4/E          Asus2
It reminds me I'll survive


eb|------------------------------------------------------------------------------------------------------------------|
Bb|------------------------------------------------------------------------------------------------------------------|
Gb|-6-6-6-6-6/-13-13-13-13-13\-6-6-6-6-6/-13-13-13-13-13-------------------------------------------------------------|
Db|-7-7-7-7-7/-14-14-14-14-14\-7-7-7-7-7/-14-14-14-14-14-------------------------------------------------------------|
Ab|-0-0-0-0-0--0--0--0--0--0---0-0-0-0-0--0--0--0--0--0--9h11-11-11-11-9h11-11-11-11-9h11-11-11-11-11-9h11-11-11-11--|
Eb|------------------------------------------------------0-0--0--0--0--0-0--0--0--0--0-0--0--0--0--0--0-0--0--0--0---|
(Repeat this once and then play it over the second verse)

Verse 2
Silence just keeps screaming back at me
The ones I love I lost in memories
I wish that I could take back what was done
You can only change the person you've become


Pre-chorus 2
A/C#
I've been broken I've been low
B/D#
I've been hurt but I'll move on
  A/C#
I have to try and find a way
   B/D#
To leave it all behind


Chourus 2
     C#m7               Badd4/D#
If I fall and crash and burn
           Bsus4/E          Asus2
At least I know your by my side
     C#m7               Badd4/D#
As I crawl that lessons learned
     Bsus4/E          Asus2
It reminds me I'll survive
          C#m7                Badd4/D#
I've been hurt and I've been scarred
           Bsus4/E        Asus2
At least I know that I'm alive
         C#m7               Badd4/D#
And If I fall and crash and burn
            Bsus4/E          Asus2
At least we both know that I tried


Bridge

Bm,F#7sus4,A,Aadd2,A,E,Esus4,E,Esus4,E,Esus4,E,Esus4,E x2

Bm F#7sus4  A     Aadd2   A       E,Esus4,E,Esus4,E,Esus4,E,Esus4,E
All of the things that I tried to say
Bm F#7sus4  A         Aadd2 A    E,Esus4,E,Esus4,E,Esus4,E,Esus4,E
All of the words just got in the way
Bm  F#7sus4  A   Aadd2  A    E,Esus4,E,Esus4,E,Esus4,E,Esus4,E
I'm waiting here I need your help
Bm    F#7sus4       A    Aadd2 A  E,Esus4,E,Esus4,E,Esus4,E,Esus4,E
Don't leave me down here all by myself


Pre-chorus 3
A/C#
Could you remind me to forget
     B/D#
The things I did the things I said
  A/C#
I hope that you can bring me back
  B/D#
I have to make it right


Chorus 3
     C#m7               Badd4/D#
If I fall and crash and burn
           Bsus4/E          Asus2
At least I know your by my side
     C#m7               Badd4/D#
As I crawl that lessons learned
     Bsus4/E          Asus2
It reminds me I'll survive
          C#m7                Badd4/D#
I've been hurt and I've been scarred
           Bsus4/E        Asus2
At least I know that I'm alive
         C#m7               Badd4/D#
And If I fall and crash and burn
            Bsus4/E          Asus2
At least we both know that I tried

Chords used
A/C# - x4222x
B/D# - x6444x
C#m7 - 9x9900
Badd4/D# - x69900
Bsus4/E - 079900
Asus2 - x02200
Bm - x24430
F#7sus4 - xx4420
A - x02220
Aadd2 - x02420
E - 022100
Esus4 - 022200
Tap to rate this tab
# A B C D E F G H I J K L M N O P Q R S T U V W X Y Z