Song name
# A B C D E F G H I J K L M N O P Q R S T U V W X Y Z

Lifehouse - Make Me Over tab

Help us improve GuitareTab! Take a short survey!
Tuning - Half a step down


Intro
eb|------------------------------|
Bb|------------------------------|
Gb|------------------------------|
Db|--12------11------12------11--|
Ab|--9-------9-------9-------9---|
Eb|--10------10------10------10--|

Verse 1
eb|----------------------------------|
Bb|----------------------------------|
Gb|----------------------------------|
Db|-----------12---------------11----|
Ab|-----------9----------------9-----|
Eb|-----------10---------------10----|
     Wrap my arms around your name

eb|-----------------------------------|
Bb|-----------------------------------|
Gb|-----------------------------------|
Db|-------------12--------------11----|
Ab|-------------9---------------9-----|
Eb|-------------10--------------10----|
     Feel your breath again my pain

eb|--------------------------------------------|
Bb|--------------------------------------------|
Gb|---------------9----------------------------|
Db|---------------9----------------12------11--|
Ab|---------------7----------------9-------9---|
Eb|--------------------------------10------10--|
     As I breathe out the past is gone

eb|-----------------------------|
Bb|-----------------------------|
Gb|-----------------------------|
Db|---------12-----------11-----|
Ab|---------9------------9------|
Eb|---------10-----------10-----|
     Empty smile, Naked heart

eb|------------------------------------------------------------|
Bb|------------------------------------------------------------|
Gb|-----------------------------------9------------------------|
Db|--------12---------11--------------9-------------12-----11--|
Ab|--------9----------9---------------7-------------9------9---|
Eb|--------10---------10----------------------------10-----10--|
     Who I was falls apart when your here inside of me

Pre-chorus 1
eb|--2----------------------|
Bb|--3----------------------|
Gb|--4----------------------|
Db|--4----------------------|
Ab|--2----------------------|
Eb|-------------------------|
     Feel till your numb

eb|------------0------------------|
Bb|------------0------------------|
Gb|------------0------------------|
Db|------------2------------------|
Ab|------------2------------------|
Eb|------------0------------------|
     Depth perception becoming

eb|-------3-----------------3--|
Bb|-------3-----------------3--|
Gb|-------0-----------------2--|
Db|-------0-----------------0--|
Ab|-------2-----------------x--|
Eb|-------3-----------------3--|
     The new deaf and dumb

Chrous 1
eb|----2------------------------2--------------------0------|
Bb|----3------------------------2--------------------0------|
Gb|----2------------------------2--------------------2------|
Db|----0------------------------0--------------------2------|
Ab|--------------------------------------------------0------|
Eb|---------------------------------------------------------|
     I'm losing myself just to find a place in your mind

eb|----------3-----|
Bb|----------3-----|
Gb|----------0-----|
Db|----------0-----|
Ab|----------2-----|
Eb|----------3-----|
     In you mind

eb|----2----------------------2-------------------0------|
Bb|----3----------------------2-------------------0------|
Gb|----2----------------------2-------------------2------|
Db|----0----------------------0-------------------2------|
Ab|-----------------------------------------------0------|
Eb|------------------------------------------------------|
     Changing myself just to stand alone in your eyes

eb|-----------3-----|
Bb|-----------3-----|
Gb|-----------0-----|
Db|-----------0-----|
Ab|-----------2-----|
Eb|-----------3-----|
     In your eyes

eb|----------0-----------0-----------------------------------|
Bb|----------0-----------0-----------------------------------|
Gb|----------0-----------2-----------------------------------|
Db|----------2-----------2-------------12----11----12----11--|
Ab|----------2-----------0-------------9-----9-----9-----9---|
Eb|----------0-------------------------10----10----10----10--|
     Pull me in, Take me out, Make me over

Verse 2
eb|---------------------------------|
Bb|---------------------------------|
Gb|---------------------------------|
Db|------------12------------11-----|
Ab|------------9-------------9------|
Eb|------------10------------10-----|
     Read the wave ride you fears

eb|---------------------------|
Bb|---------------------------|
Gb|---------------------------|
Db|----------12--------11-----|
Ab|----------9---------9------|
Eb|----------10--------10-----|
     In this ocean of years

eb|--------------------------------------|
Bb|--------------------------------------|
Gb|--------------9-----------------------|
Db|--------------9-------------12----11--|
Ab|--------------7-------------9-----9---|
Eb|----------------------------10----10--|
     We've been here, swimming on

eb|-----------------------------|
Bb|-----------------------------|
Gb|-----------------------------|
Db|-----------12----------11----|
Ab|-----------9-----------9-----|
Eb|-----------10----------10----|
     Take me deep till I find

eb|------------------------------|
Bb|------------------------------|
Gb|------------------------------|
Db|---------12------------11-----|
Ab|---------9-------------9------|
Eb|---------10------------10-----|
     Every corner of your mind

eb|--------------------------------------|
Bb|--------------------------------------|
Gb|--------------9-----------------------|
Db|--------------9-------------12----11--|
Ab|--------------7-------------9-----9---|
Eb|----------------------------10----10--|
     We've been here, swimming on

Pre-chrous 2
eb|--2----------------------|
Bb|--3----------------------|
Gb|--4----------------------|
Db|--4----------------------|
Ab|--2----------------------|
Eb|-------------------------|
     Touch till you taste

eb|-----------0--------------------|
Bb|-----------0--------------------|
Gb|-----------0--------------------|
Db|-----------2--------------------|
Ab|-----------2--------------------|
Eb|-----------0--------------------|
     All the time we are wasting

eb|---3-------------------3--|
Bb|---3-------------------3--|
Gb|---0-------------------2--|
Db|---0-------------------0--|
Ab|---2-------------------x--|
Eb|---3-------------------3--|
     Alone, waiting here

Chrous 2
eb|----2------------------------2--------------------0------|
Bb|----3------------------------2--------------------0------|
Gb|----2------------------------2--------------------2------|
Db|----0------------------------0--------------------2------|
Ab|--------------------------------------------------0------|
Eb|---------------------------------------------------------|
     I'm losing myself just to find a place in your mind

eb|----------3-----|
Bb|----------3-----|
Gb|----------0-----|
Db|----------0-----|
Ab|----------2-----|
Eb|----------3-----|
     In you mind

eb|----2----------------------2-------------------0------|
Bb|----3----------------------2-------------------0------|
Gb|----2----------------------2-------------------2------|
Db|----0----------------------0-------------------2------|
Ab|-----------------------------------------------0------|
Eb|------------------------------------------------------|
     Changing myself just to stand alone in your eyes

eb|-----------3-----|
Bb|-----------3-----|
Gb|-----------0-----|
Db|-----------0-----|
Ab|-----------2-----|
Eb|-----------3-----|
     In your eyes

eb|----------0-----------0-------------0---------0-----------0-----|
Bb|----------0-----------0-------------1---------0-----------0-----|
Gb|----------0-----------2-------------2---------2-----------0-----|
Db|----------2-----------2-------------2---------2-----------2-----|
Ab|----------2-----------0-------------0---------0-----------2-----|
Eb|----------0-----------------------------------------------0-----|
     Pull me in, Take me out, Make me over and shout me out loud

eb|---0------------2----|
Bb|---0------------3----|
Gb|---2------------2----|
Db|---2------------0----|
Ab|---0-----------------|
Eb|---------------------|
     Shout me out loud

Solo
Bm,Em,G,Gsus2

Chrous 3
eb|----2------------------------2--------------------0------|
Bb|----3------------------------2--------------------0------|
Gb|----2------------------------2--------------------2------|
Db|----0------------------------0--------------------2------|
Ab|--------------------------------------------------0------|
Eb|---------------------------------------------------------|
     I'm losing myself just to find a place in your mind

eb|-----------3-----|
Bb|-----------3-----|
Gb|-----------0-----|
Db|-----------0-----|
Ab|-----------2-----|
Eb|-----------3-----|
     In your mind

eb|----2----------------------2-------------------0------|
Bb|----3----------------------2-------------------0------|
Gb|----2----------------------2-------------------2------|
Db|----0----------------------0-------------------2------|
Ab|-----------------------------------------------0------|
Eb|------------------------------------------------------|
     Changing myself just to stand alone in your eyes

eb|-----------3-----|
Bb|-----------3-----|
Gb|-----------0-----|
Db|-----------0-----|
Ab|-----------2-----|
Eb|-----------3-----|
     In your eyes

eb|----2------------------------2--------------------0------|
Bb|----3------------------------2--------------------0------|
Gb|----2------------------------2--------------------2------|
Db|----0------------------------0--------------------2------|
Ab|--------------------------------------------------0------|
Eb|---------------------------------------------------------|
     I'm losing myself just to find a place in your mind

eb|-----------3-----|
Bb|-----------3-----|
Gb|-----------0-----|
Db|-----------0-----|
Ab|-----------2-----|
Eb|-----------3-----|
     In your mind

eb|----------0-----------0------------------|
Bb|----------0-----------0------------------|
Gb|----------0-----------2------------------|
Db|----------2-----------2------------12----|
Ab|----------2-----------0------------9-----|
Eb|----------0------------------------10----|
     Pull me in, Take me out, Make me over
Related for Make Me Over tab