Guitaretab - guitar tabs
Song name
# A B C D E F G H I J K L M N O P Q R S T U V W X Y Z

Lifehouse - Running Away tab

Highlighted       Show chord diagrams
------------------------
Lifehouse - Running Away                    tabbed by 2Luke
------------------------

really good song i just had to tab.
hope you enjoy.


------
tuning - half step down. <=- tuning !!!
------

-----------
Chords used:
-----------

      c#m7    Bsus     E5     D#/E     B5     G#m7    F#sus   Esus   A#/B
eb|----------------------------------------------------------------------------|
Bb|-----0-------0-------0-------0-------0-------0-------0-------0------0-------|
Gb|-----9-------9-------9-------9-------4-------4-------4-------4------4-------|
Db|-----9-------9-------9-------9-------4-------4-------4-------4------4-------|
Ab|-----x-------x-------7-------6-------2-------x-------x-------2------1-------|
Eb|-----9-------7-------0-----------------------4-------2-------0--------------|



note:
----
there are 2 types of B and E chords - Bsus & B5, Esus & E5.
DOnt mix them up!


-----
Intro
-----

c#m7  Bsus  E5   D#/E   Bsus   G#m7  (x2)


-------
Verse 1
-------

c#m7  Bsus  E5   D#/E   Bsus   G#m7
lost  my    step fell   back   down

c#m7  Bsus  E5     D#/E    Bsus   G#m7
lost  my    breath chasing you    around
[ Tab from: http://www.guitaretab.com/l/lifehouse/171506.html ]
c#m7  Bsus  E5   D#/E   Bsus  G#m7
ea -  sy    said hard   to    do

           c#m7   Bsus  E5
my pride's half - way   dead 

     D#/E   Bsus   G#m7
am I half - way    you

------
chorus
------

      B5                A#/B
and I never thought I'd be the one

                  Esus
who would have to come back down

        G#m7
now I'm running away

F#sus                        Esus
running away back on the ground

    B5          A#/B
and everytime I lost my way

                  Esus
you were there to break my fall

        G#m7
now I'm running away

F#sus                      Esus
running away to leave it all

-------
verse 2 (same chords as verse 1)
-------

wait for me
I fell behind
honestly
this is my best try
it's not enough
and it will never be
if it's good enough for you
then that's good enough for me

-------
Verse 3
-------

F#sus     G#m7
I wanna see

    Esus               F#sus              c#m7
the one who's standing right in front of me

         G#m7             Esus
the only peace that I can find

              G#m7         F#sus
and know that only you can be


---------
kid2008

this tab goes out to my boys the BOB of USP.
-2Luke.
Related for Running Away tab